  0
SECTION
  2
HEADER
  9
$ACADVER
  1
AC1014
  9
$DWGCODEPAGE
  3
ANSI_1252
  9
$INSBASE
 10
0.0
 20
0.0
 30
0.0
  9
$EXTMIN
 10
-7.67790263
 20
-7.6779027
  9
$EXTMAX
 10
-7.46790263
 20
-7.3809027
  9
$LIMMIN
 10
-7.67790263
 20
-7.6779027
  9
$LIMMAX
 10
-7.46790263
 20
-7.3809027
  9
$ORTHOMODE
 70
     0
  9
$REGENMODE
 70
     1
  9
$FILLMODE
 70
     1
  9
$QTEXTMODE
 70
     0
  9
$MIRRTEXT
 70
     1
  9
$DRAGMODE
 70
     2
  9
$LTSCALE
 40
0.001
  9
$OSMODE
 70
     0
  9
$ATTMODE
 70
     1
  9
$TEXTSIZE
 40
3.5
  9
$TRACEWID
 40
1.0
  9
$TEXTSTYLE
  7
STANDARD
  9
$CLAYER
  8
0
  9
$CELTYPE
  6
BYLAYER
  9
$CECOLOR
 62
   256
  9
$DIMSCALE
 40
1.0
  9
$DIMASZ
 40
2.79999995
  9
$DIMEXO
 40
5.0
  9
$DIMDLI
 40
10.0
  9
$DIMRND
 40
0.0
  9
$DIMDLE
 40
2.0
  9
$DIMEXE
 40
2.0
  9
$DIMTP
 40
0.0
  9
$DIMTM
 40
0.0
  9
$DIMTXT
 40
2.0
  9
$DIMCEN
 40
1.5
  9
$DIMTSZ
 40
0.0
  9
$DIMTOL
 70
     0
  9
$DIMLIM
 70
     0
  9
$DIMTIH
 70
     1
  9
$DIMTOH
 70
     0
  9
$DIMSE1
 70
     0
  9
$DIMSE2
 70
     0
  9
$DIMTAD
 70
     1
  9
$DIMZIN
 70
     8
  9
$DIMBLK
  1

  9
$DIMASO
 70
     1
  9
$DIMSHO
 70
     1
  9
$DIMPOST
  1

  9
$DIMAPOST
  1

  9
$DIMALT
 70
     0
  9
$DIMALTD
 70
     2
  9
$DIMALTF
 40
25.4
  9
$DIMLFAC
 40
1.0
  9
$DIMTOFL
 70
     0
  9
$DIMTVP
 40
0.0
  9
$DIMTIX
 70
     0
  9
$DIMSOXD
 70
     0
  9
$DIMSAH
 70
     0
  9
$DIMBLK1
  1

  9
$DIMBLK2
  1

  9
$DIMSTYLE
  2
*UNNAMED
  9
$DIMCLRD
 70
     9
  9
$DIMCLRE
 70
     9
  9
$DIMCLRT
 70
     7
  9
$DIMTFAC
 40
1.0
  9
$DIMGAP
 40
0.09
  9
$DIMUNIT
 70
     2
  9
$LUNITS
 70
     2
  9
$LUPREC
 70
     6
  9
$AXISMODE
 70
     0
  9
$AXISUNIT
 10
0.0
 20
0.0
  9
$SKETCHINC
 40
0.1
  9
$FILLETRAD
 40
0.0
  9
$AUNITS
 70
     0
  9
$AUPREC
 70
     0
  9
$MENU
  1
ACAD
  9
$ELEVATION
 40
0.0
  9
$PELEVATION
 40
0.0
  9
$THICKNESS
 40
0.0
  9
$LIMCHECK
 70
     0
  9
$BLIPMODE
 70
     1
  9
$CHAMFERA
 40
0.0
  9
$CHAMFERB
 40
0.0
  9
$SKPOLY
 70
     1
  9
$TDCREATE
 40
2458761.0000000000
  9
$TDUPDATE
 40
2458761.0000000000
  9
$TDINDWG
 40
0.0
  9
$TDUSRTIMER
 40
0.0
  9
$USRTIMER
 70
     1
  9
$ANGBASE
 50
0.0
  9
$ANGDIR
 70
     0
  9
$PDMODE
 70
     0
  9
$PDSIZE
 40
0.0
  9
$PLINEWID
 40
0.0
  9
$COORDS
 70
     2
  9
$SPLFRAME
 70
     0
  9
$SPLINETYPE
 70
     6
  9
$SPLINESEGS
 70
     8
  9
$ATTDIA
 70
     1
  9
$ATTREQ
 70
     1
  9
$HANDLING
 70
     1
  9
$HANDSEED
  5
     16F
  9
$SURFTAB1
 70
     6
  9
$SURFTAB2
 70
     6
  9
$SURFTYPE
 70
     6
  9
$SURFU
 70
     6
  9
$SURFV
 70
     6
  9
$UCSNAME
  2

  9
$UCSORG
 10
0.0
 20
0.0
 30
0.0
  9
$UCSXDIR
 10
1.0
 20
0.0
 30
0.0
  9
$UCSYDIR
 10
0.0
 20
1.0
 30
0.0
  9
$PUCSNAME
  2

  9
$PUCSORG
 10
0.0
 20
0.0
 30
0.0
  9
$PUCSXDIR
 10
1.0
 20
0.0
 30
0.0
  9
$PUCSYDIR
 10
0.0
 20
1.0
 30
0.0
  9
$USERI1
 70
     0
  9
$USERI2
 70
     0
  9
$USERI3
 70
     0
  9
$USERI4
 70
     0
  9
$USERI5
 70
     0
  9
$USERR1
 40
0.0
  9
$USERR2
 40
0.0
  9
$USERR3
 40
0.0
  9
$USERR4
 40
0.0
  9
$USERR5
 40
0.0
  9
$WORLDVIEW
 70
     1
  9
$SHADEDGE
 70
     3
  9
$SHADEDIF
 70
    70
  9
$TILEMODE
 70
     1
  9
$MAXACTVP
 70
    16
  9
$PINSBASE
 10
0.0
 20
0.0
 30
0.0
  9
$PLIMCHECK
 70
     0
  9
$PEXTMIN
 10
1.0000000000000E+20
 20
1.0000000000000E+20
 30
1.0000000000000E+20
  9
$PEXTMAX
 10
-1.0000000000000E+20
 20
-1.0000000000000E+20
 30
-1.0000000000000E+20
  9
$PLIMMIN
 10
0.0
 20
0.0
  9
$UNITMODE
 70
     0
  9
$VISRETAIN
 70
     0
  9
$MEASUREMENT
 70
     1
  0
ENDSEC
  0
SECTION
  2
TABLES
  0
TABLE
  2
VPORT
  5
B
100
AcDbSymbolTable
 70
     1
  0
ENDTAB
  0
TABLE
  2
STYLE
  5
C
100
AcDbSymbolTable
 70
     3
  0
STYLE
  5
D
100
AcDbSymbolTableRecord
100
AcDbTextStyleTableRecord
  2
STANDARD
 70
     0
 40
0.0
 41
1.0
 50
0.0
 71
     0
 42
3.5
  3
MONOTXT
  4

  0
STYLE
  5
E
100
AcDbSymbolTableRecord
100
AcDbTextStyleTableRecord
  2
SYMAP
 70
     0
 40
0.0
 41
1.0
 50
0.0
 71
     0
 42
3.5
  3
SYMAP
  4

  0
STYLE
  5
F
100
AcDbSymbolTableRecord
100
AcDbTextStyleTableRecord
  2
CADWORK1
 70
     0
 40
0.0
 41
1.0
 50
0.0
 71
     0
 42
3.5
  3
MONOTXT
  4

  0
STYLE
  5
10
100
AcDbSymbolTableRecord
100
AcDbTextStyleTableRecord
  2
MONOTXT
 70
     0
 40
0.0
 41
1.0
 50
0.0
 71
     0
 42
3.5
  3
MONOTXT
  4

  0
STYLE
  5
11
100
AcDbSymbolTableRecord
100
AcDbTextStyleTableRecord
  2
ARIAL
 70
     0
 40
0.0
 41
1.0
 50
0.0
 71
     0
 42
3.5
  3

  4

1001
ACAD
1000
Arial
1071
        0
  0
ENDTAB
  0
TABLE
  2
LTYPE
  5
12
100
AcDbSymbolTable
 70
    10
  0
LTYPE
  5
13
100
AcDbSymbolTableRecord
100
AcDbLinetypeTableRecord
  2
BYBLOCK
 70
    64
  3

 72
    65
 73
     0
 40
0.0
  0
LTYPE
  5
14
100
AcDbSymbolTableRecord
100
AcDbLinetypeTableRecord
  2
BYLAYER
 70
    64
  3

 72
    65
 73
     0
 40
0.0
  0
LTYPE
  5
15
100
AcDbSymbolTableRecord
100
AcDbLinetypeTableRecord
  2
CONTINUOUS
 70
    64
  3
Solid line
 72
    65
 73
     0
 40
0.0
  0
LTYPE
  5
16
100
AcDbSymbolTableRecord
100
AcDbLinetypeTableRecord
  2
CADWORK_13
 70
    64
  3
13 =======================================
 72
    65
 73
     2
 40
4.0
 49
2.0
 74
     0
 49
-2.0
 74
     0
  0
LTYPE
  5
17
100
AcDbSymbolTableRecord
100
AcDbLinetypeTableRecord
  2
DAL
 70
    64
  3
Solid line (for MAPS)
 72
    65
 73
     0
 40
0.0
  0
LTYPE
  5
18
100
AcDbSymbolTableRecord
100
AcDbLinetypeTableRecord
  2
MUR
 70
    64
  3
Solid line (for MAPS)
 72
    65
 73
     0
 40
0.0
  0
LTYPE
  5
19
100
AcDbSymbolTableRecord
100
AcDbLinetypeTableRecord
  2
SOM
 70
    64
  3
Solid line (for MAPS)
 72
    65
 73
     0
 40
0.0
  0
LTYPE
  5
1A
100
AcDbSymbolTableRecord
100
AcDbLinetypeTableRecord
  2
COL
 70
    64
  3
Solid line (for MAPS)
 72
    65
 73
     0
 40
0.0
  0
LTYPE
  5
1B
100
AcDbSymbolTableRecord
100
AcDbLinetypeTableRecord
  2
LGN
 70
    64
  3
Solid line (for MAPS)
 72
    65
 73
     0
 40
0.0
  0
LTYPE
  5
1C
100
AcDbSymbolTableRecord
100
AcDbLinetypeTableRecord
  2
PNT
 70
    64
  3
Solid line (for MAPS)
 72
    65
 73
     0
 40
0.0
  0
ENDTAB
  0
TABLE
  2
LAYER
  5
1D
100
AcDbSymbolTable
 70
     1
  0
LAYER
  5
1E
100
AcDbSymbolTableRecord
100
AcDbLayerTableRecord
  2
0
 70
     0
 62
     1
  6
CONTINUOUS
370
    -3
  0
LAYER
  5
1F
100
AcDbSymbolTableRecord
100
AcDbLayerTableRecord
  2
LAYER_1
 70
     0
 62
     7
  6
CONTINUOUS
370
    -3
  0
ENDTAB
  0
TABLE
  2
VIEW
  5
20
100
AcDbSymbolTable
 70
     0
  0
ENDTAB
  0
TABLE
  2
UCS
  5
21
100
AcDbSymbolTable
 70
     0
  0
ENDTAB
  0
TABLE
  2
APPID
  5
22
100
AcDbSymbolTable
 70
     1
  0
APPID
  5
23
100
AcDbSymbolTableRecord
100
AcDbRegAppTableRecord
  2
ACAD
 70
     0
  0
ENDTAB
  0
TABLE
  2
DIMSTYLE
  5
24
100
AcDbSymbolTable
 70
     0
  0
ENDTAB
  0
TABLE
  2
BLOCK_RECORD
  5
25
100
AcDbSymbolTable
 70
     0
  0
BLOCK_RECORD
  5
26
100
AcDbSymbolTableRecord
100
AcDbBlockTableRecord
  2
*MODEL_SPACE
  0
BLOCK_RECORD
  5
27
100
AcDbSymbolTableRecord
100
AcDbBlockTableRecord
  2
*PAPER_SPACE
  0
BLOCK_RECORD
  5
28
100
AcDbSymbolTableRecord
100
AcDbBlockTableRecord
  2
CDWK_EXTR_0
  0
BLOCK_RECORD
  5
29
100
AcDbSymbolTableRecord
100
AcDbBlockTableRecord
  2
CDWK_EXTR_1D
  0
BLOCK_RECORD
  5
2A
100
AcDbSymbolTableRecord
100
AcDbBlockTableRecord
  2
CDWK_EXTR_1G
  0
BLOCK_RECORD
  5
2B
100
AcDbSymbolTableRecord
100
AcDbBlockTableRecord
  2
CDWK_EXTR_2
  0
BLOCK_RECORD
  5
2C
100
AcDbSymbolTableRecord
100
AcDbBlockTableRecord
  2
CDWK_EXTR_3
  0
BLOCK_RECORD
  5
2D
100
AcDbSymbolTableRecord
100
AcDbBlockTableRecord
  2
CDWK_EXTR_4
  0
BLOCK_RECORD
  5
2E
100
AcDbSymbolTableRecord
100
AcDbBlockTableRecord
  2
CDWK_PTTYP0
  0
BLOCK_RECORD
  5
2F
100
AcDbSymbolTableRecord
100
AcDbBlockTableRecord
  2
*D1
  0
BLOCK_RECORD
  5
30
100
AcDbSymbolTableRecord
100
AcDbBlockTableRecord
  2
*D2
  0
BLOCK_RECORD
  5
31
100
AcDbSymbolTableRecord
100
AcDbBlockTableRecord
  2
*D3
  0
BLOCK_RECORD
  5
32
100
AcDbSymbolTableRecord
100
AcDbBlockTableRecord
  2
*D4
  0
BLOCK_RECORD
  5
33
100
AcDbSymbolTableRecord
100
AcDbBlockTableRecord
  2
*D5
  0
BLOCK_RECORD
  5
34
100
AcDbSymbolTableRecord
100
AcDbBlockTableRecord
  2
*D6
  0
BLOCK_RECORD
  5
35
100
AcDbSymbolTableRecord
100
AcDbBlockTableRecord
  2
*D7
  0
BLOCK_RECORD
  5
36
100
AcDbSymbolTableRecord
100
AcDbBlockTableRecord
  2
*D8
  0
BLOCK_RECORD
  5
37
100
AcDbSymbolTableRecord
100
AcDbBlockTableRecord
  2
*D9
  0
BLOCK_RECORD
  5
38
100
AcDbSymbolTableRecord
100
AcDbBlockTableRecord
  2
*D10
  0
BLOCK_RECORD
  5
39
100
AcDbSymbolTableRecord
100
AcDbBlockTableRecord
  2
*D11
  0
ENDTAB
  0
ENDSEC
  0
SECTION
  2
BLOCKS
  0
BLOCK
  5
3A
100
AcDbEntity
  8
0
100
AcDbBlockBegin
  2
*MODEL_SPACE
 70
     0
 10
0.0
 20
0.0
 30
0.0
  3
*MODEL_SPACE
  1

  0
ENDBLK
  5
3B
100
AcDbEntity
100
AcDbBlockEnd
  0
BLOCK
  5
3C
100
AcDbEntity
  8
0
100
AcDbBlockBegin
  2
*PAPER_SPACE
 70
     0
 10
0.0
 20
0.0
 30
0.0
  3
*PAPER_SPACE
  1

  0
ENDBLK
  5
3D
100
AcDbEntity
100
AcDbBlockEnd
  0
BLOCK
  5
3E
100
AcDbEntity
  8
0
100
AcDbBlockBegin
  2
CDWK_EXTR_0
 70
     0
 10
0.0
 20
0.0
 30
0.0
  3
CDWK_EXTR_0
  1

  4
Cadwork line-extremity
  0
LINE
  5
3F
100
AcDbEntity
  8
0
 62
     0
370
    -2
100
AcDbLine
 10
0.0
 20
0.0
 30
0.0
 11
2.0
 21
0.5
 31
0.0
  0
LINE
  5
40
100
AcDbEntity
  8
0
 62
     0
370
    -2
100
AcDbLine
 10
0.0
 20
0.0
 30
0.0
 11
2.0
 21
-0.5
 31
0.0
  0
LINE
  5
41
100
AcDbEntity
  8
0
 62
     0
370
    -2
100
AcDbLine
 10
2.0
 20
0.5
 30
0.0
 11
2.0
 21
-0.5
 31
0.0
  0
ENDBLK
  5
42
100
AcDbEntity
100
AcDbBlockEnd
  0
BLOCK
  5
43
100
AcDbEntity
  8
0
100
AcDbBlockBegin
  2
CDWK_EXTR_1D
 70
     0
 10
0.0
 20
0.0
 30
0.0
  3
CDWK_EXTR_1D
  1

  4
Cadwork line-extremity
  0
LINE
  5
44
100
AcDbEntity
  8
0
 62
     0
370
    -2
100
AcDbLine
 10
0.0
 20
0.0
 30
0.0
 11
0.0
 21
1.0
 31
0.0
  0
LINE
  5
45
100
AcDbEntity
  8
0
 62
     0
370
    -2
100
AcDbLine
 10
0.0
 20
1.0
 30
0.0
 11
0.5
 21
1.5
 31
0.0
  0
LINE
  5
46
100
AcDbEntity
  8
0
 62
     0
370
    -2
100
AcDbLine
 10
0.5
 20
1.5
 30
0.0
 11
1.5
 21
1.5
 31
0.0
  0
ENDBLK
  5
47
100
AcDbEntity
100
AcDbBlockEnd
  0
BLOCK
  5
48
100
AcDbEntity
  8
0
100
AcDbBlockBegin
  2
CDWK_EXTR_1G
 70
     0
 10
0.0
 20
0.0
 30
0.0
  3
CDWK_EXTR_1G
  1

  4
Cadwork line-extremity
  0
LINE
  5
49
100
AcDbEntity
  8
0
 62
     0
370
    -2
100
AcDbLine
 10
0.0
 20
0.0
 30
0.0
 11
0.0
 21
-1.0
 31
0.0
  0
LINE
  5
4A
100
AcDbEntity
  8
0
 62
     0
370
    -2
100
AcDbLine
 10
0.0
 20
-1.0
 30
0.0
 11
0.5
 21
-1.5
 31
0.0
  0
LINE
  5
4B
100
AcDbEntity
  8
0
 62
     0
370
    -2
100
AcDbLine
 10
0.5
 20
-1.5
 30
0.0
 11
1.5
 21
-1.5
 31
0.0
  0
ENDBLK
  5
4C
100
AcDbEntity
100
AcDbBlockEnd
  0
BLOCK
  5
4D
100
AcDbEntity
  8
0
100
AcDbBlockBegin
  2
CDWK_EXTR_2
 70
     0
 10
0.0
 20
0.0
 30
0.0
  3
CDWK_EXTR_2
  1

  4
Cadwork line-extremity
  0
SOLID
  5
4E
100
AcDbEntity
  8
0
 62
     0
100
AcDbTrace
 10
0.0
 20
0.0
 11
2.0
 21
0.5
 12
2.0
 22
-0.5
 13
2.0
 23
-0.5
  0
ENDBLK
  5
4F
100
AcDbEntity
100
AcDbBlockEnd
  0
BLOCK
  5
50
100
AcDbEntity
  8
0
100
AcDbBlockBegin
  2
CDWK_EXTR_3
 70
     0
 10
0.0
 20
0.0
 30
0.0
  3
CDWK_EXTR_3
  1

  4
Cadwork line-extremity
  0
SOLID
  5
51
100
AcDbEntity
  8
0
 62
     0
100
AcDbTrace
 10
0.0
 20
0.0
 11
2.0
 21
0.5
 12
2.0
 22
-0.5
 13
2.0
 23
-0.5
  0
LINE
  5
52
100
AcDbEntity
  8
0
 62
     0
370
    -2
100
AcDbLine
 10
0.0
 20
1.0
 30
0.0
 11
0.0
 21
-1.0
 31
0.0
  0
ENDBLK
  5
53
100
AcDbEntity
100
AcDbBlockEnd
  0
BLOCK
  5
54
100
AcDbEntity
  8
0
100
AcDbBlockBegin
  2
CDWK_EXTR_4
 70
     0
 10
0.0
 20
0.0
 30
0.0
  3
CDWK_EXTR_4
  1

  4
Cadwork line-extremity
  0
HATCH
  5
55
100
AcDbEntity
  8
0
 62
     0
370
    -2
100
AcDbHatch
 10
0.0
 20
0.0
 30
0.0
210
0.0
220
0.0
230
1.0
  2
SOLID
 70
     1
 71
     0
 91
        1
 92
        1
 93
        1
 72
     2
 10
0.0
 20
0.0
 40
0.5
 50
0.0
 51
360.0
 73
     1
 97
        0
 75
     0
 76
     1
 98
        1
 10
0.0
 20
0.0
  0
ENDBLK
  5
56
100
AcDbEntity
100
AcDbBlockEnd
  0
BLOCK
  5
57
100
AcDbEntity
  8
0
100
AcDbBlockBegin
  2
CDWK_PTTYP0
 70
     0
 10
0.0
 20
0.0
 30
0.0
  3
CDWK_PTTYP0
  1

  4
Cadwork point
  0
POINT
  5
58
100
AcDbEntity
  8
0
 62
     0
100
AcDbPoint
 10
0.0
 20
0.0
 30
0.0
  0
ENDBLK
  5
59
100
AcDbEntity
100
AcDbBlockEnd
  0
BLOCK
  5
5A
100
AcDbEntity
  8
LAYER_1
100
AcDbBlockBegin
  2
*D1
 70
     1
 10
0.0
 20
0.0
 30
0.0
  3
*D1
  1

  4
Cadwork dimension
  0
TEXT
  5
5B
100
AcDbEntity
  8
LAYER_1
 62
     7
370
    18
100
AcDbText
 10
-7.50764329
 20
-7.60049028
 30
0.0
 40
0.00225
  1
a
  7
ARIAL
 50
0.0
 41
0.5
 51
0.0
100
AcDbText
  0
LINE
  5
5C
100
AcDbEntity
  8
LAYER_1
 62
     9
370
    -2
100
AcDbLine
 10
-7.51415421
 20
-7.60289028
 30
0.0
 11
-7.51415421
 21
-7.59949028
 31
0.0
  0
LINE
  5
5D
100
AcDbEntity
  8
LAYER_1
 62
     9
370
    -2
100
AcDbLine
 10
-7.50027707
 20
-7.60289028
 30
0.0
 11
-7.50027707
 21
-7.59949028
 31
0.0
  0
LINE
  5
5E
100
AcDbEntity
  8
LAYER_1
 62
     9
370
    -2
100
AcDbLine
 10
-7.51555421
 20
-7.60149028
 30
0.0
 11
-7.49887707
 21
-7.60149028
 31
0.0
  0
LINE
  5
5F
100
AcDbEntity
  8
LAYER_1
 62
     9
370
    -2
100
AcDbLine
 10
-7.51485421
 20
-7.60219028
 30
0.0
 11
-7.51345421
 21
-7.60079028
 31
0.0
  0
LINE
  5
60
100
AcDbEntity
  8
LAYER_1
 62
     9
370
    -2
100
AcDbLine
 10
-7.50097707
 20
-7.60219028
 30
0.0
 11
-7.49957707
 21
-7.60079028
 31
0.0
  0
ENDBLK
  5
61
100
AcDbEntity
100
AcDbBlockEnd
  0
BLOCK
  5
62
100
AcDbEntity
  8
LAYER_1
100
AcDbBlockBegin
  2
*D2
 70
     1
 10
0.0
 20
0.0
 30
0.0
  3
*D2
  1

  4
Cadwork dimension
  0
TEXT
  5
63
100
AcDbEntity
  8
LAYER_1
 62
     7
370
    18
100
AcDbText
 10
-7.50016234
 20
-7.60049028
 30
0.0
 40
0.00225
  1
s
  7
ARIAL
 50
0.0
 41
0.5
 51
0.0
100
AcDbText
  0
LINE
  5
64
100
AcDbEntity
  8
LAYER_1
 62
     9
370
    -2
100
AcDbLine
 10
-7.50027707
 20
-7.60289028
 30
0.0
 11
-7.50027707
 21
-7.59949028
 31
0.0
  0
LINE
  5
65
100
AcDbEntity
  8
LAYER_1
 62
     9
370
    -2
100
AcDbLine
 10
-7.49927707
 20
-7.60289028
 30
0.0
 11
-7.49927707
 21
-7.59949028
 31
0.0
  0
LINE
  5
66
100
AcDbEntity
  8
LAYER_1
 62
     9
370
    -2
100
AcDbLine
 10
-7.50167707
 20
-7.60149028
 30
0.0
 11
-7.49787707
 21
-7.60149028
 31
0.0
  0
LINE
  5
67
100
AcDbEntity
  8
LAYER_1
 62
     9
370
    -2
100
AcDbLine
 10
-7.50097707
 20
-7.60219028
 30
0.0
 11
-7.49957707
 21
-7.60079028
 31
0.0
  0
LINE
  5
68
100
AcDbEntity
  8
LAYER_1
 62
     9
370
    -2
100
AcDbLine
 10
-7.49997707
 20
-7.60219028
 30
0.0
 11
-7.49857707
 21
-7.60079028
 31
0.0
  0
ENDBLK
  5
69
100
AcDbEntity
100
AcDbBlockEnd
  0
BLOCK
  5
6A
100
AcDbEntity
  8
LAYER_1
100
AcDbBlockBegin
  2
*D3
 70
     1
 10
0.0
 20
0.0
 30
0.0
  3
*D3
  1

  4
Cadwork dimension
  0
TEXT
  5
6B
100
AcDbEntity
  8
LAYER_1
 62
     7
370
    18
100
AcDbText
 10
-7.50764329
 20
-7.56480992
 30
0.0
 40
0.00225
  1
a
  7
ARIAL
 50
0.0
 41
0.5
 51
0.0
100
AcDbText
  0
LINE
  5
6C
100
AcDbEntity
  8
LAYER_1
 62
     9
370
    -2
100
AcDbLine
 10
-7.51415421
 20
-7.56720992
 30
0.0
 11
-7.51415421
 21
-7.56380992
 31
0.0
  0
LINE
  5
6D
100
AcDbEntity
  8
LAYER_1
 62
     9
370
    -2
100
AcDbLine
 10
-7.50027707
 20
-7.56720992
 30
0.0
 11
-7.50027707
 21
-7.56380992
 31
0.0
  0
LINE
  5
6E
100
AcDbEntity
  8
LAYER_1
 62
     9
370
    -2
100
AcDbLine
 10
-7.51555421
 20
-7.56580992
 30
0.0
 11
-7.49887707
 21
-7.56580992
 31
0.0
  0
LINE
  5
6F
100
AcDbEntity
  8
LAYER_1
 62
     9
370
    -2
100
AcDbLine
 10
-7.51485421
 20
-7.56650992
 30
0.0
 11
-7.51345421
 21
-7.56510992
 31
0.0
  0
LINE
  5
70
100
AcDbEntity
  8
LAYER_1
 62
     9
370
    -2
100
AcDbLine
 10
-7.50097707
 20
-7.56650992
 30
0.0
 11
-7.49957707
 21
-7.56510992
 31
0.0
  0
ENDBLK
  5
71
100
AcDbEntity
100
AcDbBlockEnd
  0
BLOCK
  5
72
100
AcDbEntity
  8
LAYER_1
100
AcDbBlockBegin
  2
*D4
 70
     1
 10
0.0
 20
0.0
 30
0.0
  3
*D4
  1

  4
Cadwork dimension
  0
TEXT
  5
73
100
AcDbEntity
  8
LAYER_1
 62
     7
370
    18
100
AcDbText
 10
-7.50016234
 20
-7.56480992
 30
0.0
 40
0.00225
  1
s
  7
ARIAL
 50
0.0
 41
0.5
 51
0.0
100
AcDbText
  0
LINE
  5
74
100
AcDbEntity
  8
LAYER_1
 62
     9
370
    -2
100
AcDbLine
 10
-7.50027707
 20
-7.56720992
 30
0.0
 11
-7.50027707
 21
-7.56380992
 31
0.0
  0
LINE
  5
75
100
AcDbEntity
  8
LAYER_1
 62
     9
370
    -2
100
AcDbLine
 10
-7.49927707
 20
-7.56720992
 30
0.0
 11
-7.49927707
 21
-7.56380992
 31
0.0
  0
LINE
  5
76
100
AcDbEntity
  8
LAYER_1
 62
     9
370
    -2
100
AcDbLine
 10
-7.50167707
 20
-7.56580992
 30
0.0
 11
-7.49787707
 21
-7.56580992
 31
0.0
  0
LINE
  5
77
100
AcDbEntity
  8
LAYER_1
 62
     9
370
    -2
100
AcDbLine
 10
-7.50097707
 20
-7.56650992
 30
0.0
 11
-7.49957707
 21
-7.56510992
 31
0.0
  0
LINE
  5
78
100
AcDbEntity
  8
LAYER_1
 62
     9
370
    -2
100
AcDbLine
 10
-7.49997707
 20
-7.56650992
 30
0.0
 11
-7.49857707
 21
-7.56510992
 31
0.0
  0
ENDBLK
  5
79
100
AcDbEntity
100
AcDbBlockEnd
  0
BLOCK
  5
7A
100
AcDbEntity
  8
LAYER_1
100
AcDbBlockBegin
  2
*D5
 70
     1
 10
0.0
 20
0.0
 30
0.0
  3
*D5
  1

  4
Cadwork dimension
  0
TEXT
  5
7B
100
AcDbEntity
  8
LAYER_1
 62
     7
370
    18
100
AcDbText
 10
-7.49619924
 20
-7.55751742
 30
0.0
 40
0.00225
  1
u
  7
ARIAL
 50
89.9999975
 41
0.5
 51
0.0
100
AcDbText
  0
LINE
  5
7C
100
AcDbEntity
  8
LAYER_1
 62
     9
370
    -2
100
AcDbLine
 10
-7.49379924
 20
-7.56083977
 30
0.0
 11
-7.49719924
 21
-7.56083977
 31
0.0
  0
LINE
  5
7D
100
AcDbEntity
  8
LAYER_1
 62
     9
370
    -2
100
AcDbLine
 10
-7.49379924
 20
-7.55333977
 30
0.0
 11
-7.49719924
 21
-7.55333977
 31
0.0
  0
LINE
  5
7E
100
AcDbEntity
  8
LAYER_1
 62
     9
370
    -2
100
AcDbLine
 10
-7.49519924
 20
-7.56223977
 30
0.0
 11
-7.49519924
 21
-7.55193977
 31
0.0
  0
LINE
  5
7F
100
AcDbEntity
  8
LAYER_1
 62
     9
370
    -2
100
AcDbLine
 10
-7.49449924
 20
-7.56153977
 30
0.0
 11
-7.49589924
 21
-7.56013977
 31
0.0
  0
LINE
  5
80
100
AcDbEntity
  8
LAYER_1
 62
     9
370
    -2
100
AcDbLine
 10
-7.49449924
 20
-7.55403977
 30
0.0
 11
-7.49589924
 21
-7.55263977
 31
0.0
  0
ENDBLK
  5
81
100
AcDbEntity
100
AcDbBlockEnd
  0
BLOCK
  5
82
100
AcDbEntity
  8
LAYER_1
100
AcDbBlockBegin
  2
*D6
 70
     1
 10
0.0
 20
0.0
 30
0.0
  3
*D6
  1

  4
Cadwork dimension
  0
TEXT
  5
83
100
AcDbEntity
  8
LAYER_1
 62
     7
370
    18
100
AcDbText
 10
-7.49619924
 20
-7.55322504
 30
0.0
 40
0.00225
  1
s
  7
ARIAL
 50
89.9999975
 41
0.5
 51
0.0
100
AcDbText
  0
LINE
  5
84
100
AcDbEntity
  8
LAYER_1
 62
     9
370
    -2
100
AcDbLine
 10
-7.49379924
 20
-7.55333977
 30
0.0
 11
-7.49719924
 21
-7.55333977
 31
0.0
  0
LINE
  5
85
100
AcDbEntity
  8
LAYER_1
 62
     9
370
    -2
100
AcDbLine
 10
-7.49379924
 20
-7.55233977
 30
0.0
 11
-7.49719924
 21
-7.55233977
 31
0.0
  0
LINE
  5
86
100
AcDbEntity
  8
LAYER_1
 62
     9
370
    -2
100
AcDbLine
 10
-7.49519924
 20
-7.55473977
 30
0.0
 11
-7.49519924
 21
-7.55093977
 31
0.0
  0
LINE
  5
87
100
AcDbEntity
  8
LAYER_1
 62
     9
370
    -2
100
AcDbLine
 10
-7.49449924
 20
-7.55403977
 30
0.0
 11
-7.49589924
 21
-7.55263977
 31
0.0
  0
LINE
  5
88
100
AcDbEntity
  8
LAYER_1
 62
     9
370
    -2
100
AcDbLine
 10
-7.49449924
 20
-7.55303977
 30
0.0
 11
-7.49589924
 21
-7.55163977
 31
0.0
  0
ENDBLK
  5
89
100
AcDbEntity
100
AcDbBlockEnd
  0
BLOCK
  5
8A
100
AcDbEntity
  8
LAYER_1
100
AcDbBlockBegin
  2
*D7
 70
     1
 10
0.0
 20
0.0
 30
0.0
  3
*D7
  1

  4
Cadwork dimension
  0
TEXT
  5
8B
100
AcDbEntity
  8
LAYER_1
 62
     7
370
    18
100
AcDbText
 10
-7.49619924
 20
-7.59355747
 30
0.0
 40
0.00225
  1
u
  7
ARIAL
 50
89.9999975
 41
0.5
 51
0.0
100
AcDbText
  0
LINE
  5
8C
100
AcDbEntity
  8
LAYER_1
 62
     9
370
    -2
100
AcDbLine
 10
-7.49379924
 20
-7.59687981
 30
0.0
 11
-7.49719924
 21
-7.59687981
 31
0.0
  0
LINE
  5
8D
100
AcDbEntity
  8
LAYER_1
 62
     9
370
    -2
100
AcDbLine
 10
-7.49379924
 20
-7.58937981
 30
0.0
 11
-7.49719924
 21
-7.58937981
 31
0.0
  0
LINE
  5
8E
100
AcDbEntity
  8
LAYER_1
 62
     9
370
    -2
100
AcDbLine
 10
-7.49519924
 20
-7.59827981
 30
0.0
 11
-7.49519924
 21
-7.58797981
 31
0.0
  0
LINE
  5
8F
100
AcDbEntity
  8
LAYER_1
 62
     9
370
    -2
100
AcDbLine
 10
-7.49449924
 20
-7.59757981
 30
0.0
 11
-7.49589924
 21
-7.59617981
 31
0.0
  0
LINE
  5
90
100
AcDbEntity
  8
LAYER_1
 62
     9
370
    -2
100
AcDbLine
 10
-7.49449924
 20
-7.59007981
 30
0.0
 11
-7.49589924
 21
-7.58867981
 31
0.0
  0
ENDBLK
  5
91
100
AcDbEntity
100
AcDbBlockEnd
  0
BLOCK
  5
92
100
AcDbEntity
  8
LAYER_1
100
AcDbBlockBegin
  2
*D8
 70
     1
 10
0.0
 20
0.0
 30
0.0
  3
*D8
  1

  4
Cadwork dimension
  0
TEXT
  5
93
100
AcDbEntity
  8
LAYER_1
 62
     7
370
    18
100
AcDbText
 10
-7.49619924
 20
-7.58505747
 30
0.0
 40
0.00225
  1
o
  7
ARIAL
 50
89.9999975
 41
0.5
 51
0.0
100
AcDbText
  0
LINE
  5
94
100
AcDbEntity
  8
LAYER_1
 62
     9
370
    -2
100
AcDbLine
 10
-7.49379924
 20
-7.58837981
 30
0.0
 11
-7.49719924
 21
-7.58837981
 31
0.0
  0
LINE
  5
95
100
AcDbEntity
  8
LAYER_1
 62
     9
370
    -2
100
AcDbLine
 10
-7.49379924
 20
-7.58087981
 30
0.0
 11
-7.49719924
 21
-7.58087981
 31
0.0
  0
LINE
  5
96
100
AcDbEntity
  8
LAYER_1
 62
     9
370
    -2
100
AcDbLine
 10
-7.49519924
 20
-7.58977981
 30
0.0
 11
-7.49519924
 21
-7.57947981
 31
0.0
  0
LINE
  5
97
100
AcDbEntity
  8
LAYER_1
 62
     9
370
    -2
100
AcDbLine
 10
-7.49449924
 20
-7.58907981
 30
0.0
 11
-7.49589924
 21
-7.58767981
 31
0.0
  0
LINE
  5
98
100
AcDbEntity
  8
LAYER_1
 62
     9
370
    -2
100
AcDbLine
 10
-7.49449924
 20
-7.58157981
 30
0.0
 11
-7.49589924
 21
-7.58017981
 31
0.0
  0
ENDBLK
  5
99
100
AcDbEntity
100
AcDbBlockEnd
  0
BLOCK
  5
9A
100
AcDbEntity
  8
LAYER_1
100
AcDbBlockBegin
  2
*D9
 70
     1
 10
0.0
 20
0.0
 30
0.0
  3
*D9
  1

  4
Cadwork dimension
  0
TEXT
  5
9B
100
AcDbEntity
  8
LAYER_1
 62
     7
370
    18
100
AcDbText
 10
-7.49619924
 20
-7.58926509
 30
0.0
 40
0.00225
  1
s
  7
ARIAL
 50
89.9999975
 41
0.5
 51
0.0
100
AcDbText
  0
LINE
  5
9C
100
AcDbEntity
  8
LAYER_1
 62
     9
370
    -2
100
AcDbLine
 10
-7.49379924
 20
-7.58937981
 30
0.0
 11
-7.49719924
 21
-7.58937981
 31
0.0
  0
LINE
  5
9D
100
AcDbEntity
  8
LAYER_1
 62
     9
370
    -2
100
AcDbLine
 10
-7.49379924
 20
-7.58837981
 30
0.0
 11
-7.49719924
 21
-7.58837981
 31
0.0
  0
LINE
  5
9E
100
AcDbEntity
  8
LAYER_1
 62
     9
370
    -2
100
AcDbLine
 10
-7.49519924
 20
-7.59077981
 30
0.0
 11
-7.49519924
 21
-7.58697981
 31
0.0
  0
LINE
  5
9F
100
AcDbEntity
  8
LAYER_1
 62
     9
370
    -2
100
AcDbLine
 10
-7.49449924
 20
-7.59007981
 30
0.0
 11
-7.49589924
 21
-7.58867981
 31
0.0
  0
LINE
  5
A0
100
AcDbEntity
  8
LAYER_1
 62
     9
370
    -2
100
AcDbLine
 10
-7.49449924
 20
-7.58907981
 30
0.0
 11
-7.49589924
 21
-7.58767981
 31
0.0
  0
ENDBLK
  5
A1
100
AcDbEntity
100
AcDbBlockEnd
  0
BLOCK
  5
A2
100
AcDbEntity
  8
LAYER_1
100
AcDbBlockBegin
  2
*D10
 70
     1
 10
0.0
 20
0.0
 30
0.0
  3
*D10
  1

  4
Cadwork dimension
  0
TEXT
  5
A3
100
AcDbEntity
  8
LAYER_1
 62
     7
370
    18
100
AcDbText
 10
-7.49619924
 20
-7.52699135
 30
0.0
 40
0.00225
  1
s
  7
ARIAL
 50
89.9999975
 41
0.5
 51
0.0
100
AcDbText
  0
LINE
  5
A4
100
AcDbEntity
  8
LAYER_1
 62
     9
370
    -2
100
AcDbLine
 10
-7.49379924
 20
-7.52710608
 30
0.0
 11
-7.49719924
 21
-7.52710608
 31
0.0
  0
LINE
  5
A5
100
AcDbEntity
  8
LAYER_1
 62
     9
370
    -2
100
AcDbLine
 10
-7.49379924
 20
-7.52610608
 30
0.0
 11
-7.49719924
 21
-7.52610608
 31
0.0
  0
LINE
  5
A6
100
AcDbEntity
  8
LAYER_1
 62
     9
370
    -2
100
AcDbLine
 10
-7.49519924
 20
-7.52850608
 30
0.0
 11
-7.49519924
 21
-7.52470608
 31
0.0
  0
LINE
  5
A7
100
AcDbEntity
  8
LAYER_1
 62
     9
370
    -2
100
AcDbLine
 10
-7.49449924
 20
-7.52780608
 30
0.0
 11
-7.49589924
 21
-7.52640608
 31
0.0
  0
LINE
  5
A8
100
AcDbEntity
  8
LAYER_1
 62
     9
370
    -2
100
AcDbLine
 10
-7.49449924
 20
-7.52680608
 30
0.0
 11
-7.49589924
 21
-7.52540608
 31
0.0
  0
ENDBLK
  5
A9
100
AcDbEntity
100
AcDbBlockEnd
  0
BLOCK
  5
AA
100
AcDbEntity
  8
LAYER_1
100
AcDbBlockBegin
  2
*D11
 70
     1
 10
0.0
 20
0.0
 30
0.0
  3
*D11
  1

  4
Cadwork dimension
  0
TEXT
  5
AB
100
AcDbEntity
  8
LAYER_1
 62
     7
370
    18
100
AcDbText
 10
-7.50714329
 20
-7.52980356
 30
0.0
 40
0.00225
  1
a
  7
ARIAL
 50
0.0
 41
0.5
 51
0.0
100
AcDbText
  0
LINE
  5
AC
100
AcDbEntity
  8
LAYER_1
 62
     9
370
    -2
100
AcDbLine
 10
-7.51415421
 20
-7.53220356
 30
0.0
 11
-7.51415421
 21
-7.52880356
 31
0.0
  0
LINE
  5
AD
100
AcDbEntity
  8
LAYER_1
 62
     9
370
    -2
100
AcDbLine
 10
-7.49927707
 20
-7.53220356
 30
0.0
 11
-7.49927707
 21
-7.52880356
 31
0.0
  0
LINE
  5
AE
100
AcDbEntity
  8
LAYER_1
 62
     9
370
    -2
100
AcDbLine
 10
-7.51555421
 20
-7.53080356
 30
0.0
 11
-7.49787707
 21
-7.53080356
 31
0.0
  0
LINE
  5
AF
100
AcDbEntity
  8
LAYER_1
 62
     9
370
    -2
100
AcDbLine
 10
-7.51485421
 20
-7.53150356
 30
0.0
 11
-7.51345421
 21
-7.53010356
 31
0.0
  0
LINE
  5
B0
100
AcDbEntity
  8
LAYER_1
 62
     9
370
    -2
100
AcDbLine
 10
-7.49997707
 20
-7.53150356
 30
0.0
 11
-7.49857707
 21
-7.53010356
 31
0.0
  0
ENDBLK
  5
B1
100
AcDbEntity
100
AcDbBlockEnd
  0
ENDSEC
  0
SECTION
  2
ENTITIES
  0
LWPOLYLINE
  5
B2
100
AcDbEntity
  8
LAYER_1
 62
     1
  6
CONTINUOUS
370
    -3
100
AcDbPolyline
 90
        5
 70
     0
 43
0.0
 10
-7.66210263
 20
-7.6634027
 10
-7.48810263
 20
-7.6634027
 10
-7.48810263
 20
-7.4344027
 10
-7.66210263
 20
-7.4344027
 10
-7.66210263
 20
-7.6634027
  0
LINE
  5
B3
100
AcDbEntity
  8
LAYER_1
 62
     1
  6
CONTINUOUS
370
    -3
100
AcDbLine
 10
-7.66210263
 20
-7.6584027
 30
0.0
 11
-7.48810263
 21
-7.6584027
 31
0.0
  0
LINE
  5
B4
100
AcDbEntity
  8
LAYER_1
 62
     1
  6
CONTINUOUS
370
    -3
100
AcDbLine
 10
-7.66210263
 20
-7.4404027
 30
0.0
 11
-7.48810263
 21
-7.4404027
 31
0.0
  0
LINE
  5
B5
100
AcDbEntity
  8
LAYER_1
 62
     1
  6
CONTINUOUS
370
    -3
100
AcDbLine
 10
-7.66210263
 20
-7.4514027
 30
0.0
 11
-7.48810263
 21
-7.4514027
 31
0.0
  0
LINE
  5
B6
100
AcDbEntity
  8
LAYER_1
 62
     1
  6
CONTINUOUS
370
    -3
100
AcDbLine
 10
-7.66210263
 20
-7.4724027
 30
0.0
 11
-7.48810263
 21
-7.4724027
 31
0.0
  0
LINE
  5
B7
100
AcDbEntity
  8
LAYER_1
 62
     1
  6
CONTINUOUS
370
    -3
100
AcDbLine
 10
-7.66210263
 20
-7.4934027
 30
0.0
 11
-7.48810263
 21
-7.4934027
 31
0.0
  0
LINE
  5
B8
100
AcDbEntity
  8
LAYER_1
 62
     1
  6
CONTINUOUS
370
    -3
100
AcDbLine
 10
-7.57510263
 20
-7.4934027
 30
0.0
 11
-7.57510263
 21
-7.4514027
 31
0.0
  0
LWPOLYLINE
  5
B9
100
AcDbEntity
  8
LAYER_1
 62
     7
  6
CONTINUOUS
370
    -3
100
AcDbPolyline
 90
        6
 70
     0
 43
0.0
 10
-7.66210263
 20
-7.4934027
 10
-7.48810263
 20
-7.4934027
 10
-7.48810263
 20
-7.6634027
 10
-7.66210263
 20
-7.6634027
 10
-7.66210263
 20
-7.4934027
 10
-7.48810263
 20
-7.4934027
  0
LINE
  5
BA
100
AcDbEntity
  8
LAYER_1
 62
     1
  6
CONTINUOUS
370
    -3
100
AcDbLine
 10
-7.66210263
 20
-7.4099027
 30
0.0
 11
-7.55460263
 21
-7.4099027
 31
0.0
  0
LINE
  5
BB
100
AcDbEntity
  8
LAYER_1
 62
     1
  6
CONTINUOUS
370
    -3
100
AcDbLine
 10
-7.55460263
 20
-7.4099027
 30
0.0
 11
-7.54610263
 21
-7.3969721
 31
0.0
  0
LINE
  5
BC
100
AcDbEntity
  8
LAYER_1
 62
     1
  6
CONTINUOUS
370
    -3
100
AcDbLine
 10
-7.57510263
 20
-7.4934027
 30
0.0
 11
-7.57510263
 21
-7.4934027
 31
0.0
  0
LWPOLYLINE
  5
BD
100
AcDbEntity
  8
LAYER_1
 62
     1
  6
CONTINUOUS
370
    -3
100
AcDbPolyline
 90
        5
 70
     0
 43
0.0
 10
-7.5809206
 20
-7.65992679
 10
-7.5789206
 20
-7.65992679
 10
-7.5789206
 20
-7.66192679
 10
-7.5809206
 20
-7.66192679
 10
-7.5809206
 20
-7.65992679
  0
LWPOLYLINE
  5
BE
100
AcDbEntity
  8
LAYER_1
 62
     1
  6
CONTINUOUS
370
    -3
100
AcDbPolyline
 90
        5
 70
     0
 43
0.0
 10
-7.5656292
 20
-7.65992679
 10
-7.5636292
 20
-7.65992679
 10
-7.5636292
 20
-7.66192679
 10
-7.5656292
 20
-7.66192679
 10
-7.5656292
 20
-7.65992679
  0
LWPOLYLINE
  5
BF
100
AcDbEntity
  8
LAYER_1
 62
     1
  6
CONTINUOUS
370
    -3
100
AcDbPolyline
 90
        5
 70
     0
 43
0.0
 10
-7.55446372
 20
-7.65992679
 10
-7.55246372
 20
-7.65992679
 10
-7.55246372
 20
-7.66192679
 10
-7.55446372
 20
-7.66192679
 10
-7.55446372
 20
-7.65992679
  0
LWPOLYLINE
  5
C0
100
AcDbEntity
  8
LAYER_1
 62
     1
  6
CONTINUOUS
370
    -3
100
AcDbPolyline
 90
        5
 70
     0
 43
0.0
 10
-7.54301359
 20
-7.65992679
 10
-7.54101359
 20
-7.65992679
 10
-7.54101359
 20
-7.66192679
 10
-7.54301359
 20
-7.66192679
 10
-7.54301359
 20
-7.65992679
  0
LINE
  5
C1
100
AcDbEntity
  8
LAYER_1
 62
     1
  6
CONTINUOUS
370
    -3
100
AcDbLine
 10
-7.66210263
 20
-7.6584027
 30
0.0
 11
-7.48810263
 21
-7.6584027
 31
0.0
  0
LINE
  5
C2
100
AcDbEntity
  8
LAYER_1
 62
     7
  6
CONTINUOUS
370
    -3
100
AcDbLine
 10
-7.66210263
 20
-7.6584027
 30
0.0
 11
-7.48810263
 21
-7.6584027
 31
0.0
  0
LINE
  5
C3
100
AcDbEntity
  8
LAYER_1
 62
     1
  6
CONTINUOUS
370
    -3
100
AcDbLine
 10
-7.66210263
 20
-7.5094027
 30
0.0
 11
-7.48810263
 21
-7.5094027
 31
0.0
  0
LWPOLYLINE
  5
C4
102
{ACAD_REACTORS
330
C5
102
}
100
AcDbEntity
  8
LAYER_1
 62
   190
  6
CONTINUOUS
370
    -3
100
AcDbPolyline
 90
        4
 70
     1
 43
0.0
 10
-7.65410263
 20
-7.4934027
 10
-7.63110263
 20
-7.4934027
 10
-7.63110263
 20
-7.5014027
 10
-7.65410263
 20
-7.5014027
  0
HATCH
  5
C5
100
AcDbEntity
  8
LAYER_1
 62
   253
  6
CONTINUOUS
100
AcDbHatch
 10
0.0
 20
0.0
 30
0.0
210
0.0
220
0.0
230
1.0
  2
SOLID
 70
     1
 71
     1
 91
        1
 92
        7
 72
     0
 73
     1
 93
        4
 10
-7.65410263
 20
-7.4934027
 10
-7.63110263
 20
-7.4934027
 10
-7.63110263
 20
-7.5014027
 10
-7.65410263
 20
-7.5014027
 97
        1
330
C4
 75
     0
 76
     2
 47
0.775229
 98
        1
 10
0.0
 20
0.0
  0
LINE
  5
C6
100
AcDbEntity
  8
LAYER_1
 62
     7
  6
CONTINUOUS
370
    -3
100
AcDbLine
 10
-7.66210263
 20
-7.4934027
 30
0.0
 11
-7.48810263
 21
-7.4934027
 31
0.0
  0
LINE
  5
C7
100
AcDbEntity
  8
LAYER_1
 62
     1
  6
CONTINUOUS
370
    -3
100
AcDbLine
 10
-7.65410263
 20
-7.4934027
 30
0.0
 11
-7.65410263
 21
-7.6264027
 31
0.0
  0
LINE
  5
C8
100
AcDbEntity
  8
LAYER_1
 62
     1
  6
CONTINUOUS
370
    -3
100
AcDbLine
 10
-7.66210263
 20
-7.5174027
 30
0.0
 11
-7.52410263
 21
-7.5174027
 31
0.0
  0
LINE
  5
C9
100
AcDbEntity
  8
LAYER_1
 62
     1
  6
CONTINUOUS
370
    -3
100
AcDbLine
 10
-7.66210263
 20
-7.5254027
 30
0.0
 11
-7.52410263
 21
-7.5254027
 31
0.0
  0
LINE
  5
CA
100
AcDbEntity
  8
LAYER_1
 62
     1
  6
CONTINUOUS
370
    -3
100
AcDbLine
 10
-7.66210263
 20
-7.5334027
 30
0.0
 11
-7.52410263
 21
-7.5334027
 31
0.0
  0
LINE
  5
CB
100
AcDbEntity
  8
LAYER_1
 62
     1
  6
CONTINUOUS
370
    -3
100
AcDbLine
 10
-7.66210263
 20
-7.5414027
 30
0.0
 11
-7.48810263
 21
-7.5414027
 31
0.0
  0
LINE
  5
CC
100
AcDbEntity
  8
LAYER_1
 62
     1
  6
CONTINUOUS
370
    -3
100
AcDbLine
 10
-7.66210263
 20
-7.5494027
 30
0.0
 11
-7.52410263
 21
-7.5494027
 31
0.0
  0
LINE
  5
CD
100
AcDbEntity
  8
LAYER_1
 62
     1
  6
CONTINUOUS
370
    -3
100
AcDbLine
 10
-7.66210263
 20
-7.5574027
 30
0.0
 11
-7.52410263
 21
-7.5574027
 31
0.0
  0
LINE
  5
CE
100
AcDbEntity
  8
LAYER_1
 62
     1
  6
CONTINUOUS
370
    -3
100
AcDbLine
 10
-7.66210263
 20
-7.5654027
 30
0.0
 11
-7.52410263
 21
-7.5654027
 31
0.0
  0
LINE
  5
CF
100
AcDbEntity
  8
LAYER_1
 62
     1
  6
CONTINUOUS
370
    -3
100
AcDbLine
 10
-7.66210263
 20
-7.5734027
 30
0.0
 11
-7.48810263
 21
-7.5734027
 31
0.0
  0
LINE
  5
D0
100
AcDbEntity
  8
LAYER_1
 62
     1
  6
CONTINUOUS
370
    -3
100
AcDbLine
 10
-7.66210263
 20
-7.5814027
 30
0.0
 11
-7.52410263
 21
-7.5814027
 31
0.0
  0
LINE
  5
D1
100
AcDbEntity
  8
LAYER_1
 62
     1
  6
CONTINUOUS
370
    -3
100
AcDbLine
 10
-7.66210263
 20
-7.5894027
 30
0.0
 11
-7.52410263
 21
-7.5894027
 31
0.0
  0
LINE
  5
D2
100
AcDbEntity
  8
LAYER_1
 62
     1
  6
CONTINUOUS
370
    -3
100
AcDbLine
 10
-7.66210263
 20
-7.5974027
 30
0.0
 11
-7.52410263
 21
-7.5974027
 31
0.0
  0
LINE
  5
D3
100
AcDbEntity
  8
LAYER_1
 62
     1
  6
CONTINUOUS
370
    -3
100
AcDbLine
 10
-7.66210263
 20
-7.6054027
 30
0.0
 11
-7.52410263
 21
-7.6054027
 31
0.0
  0
LINE
  5
D4
100
AcDbEntity
  8
LAYER_1
 62
     1
  6
CONTINUOUS
370
    -3
100
AcDbLine
 10
-7.63110263
 20
-7.4934027
 30
0.0
 11
-7.63110263
 21
-7.6054027
 31
0.0
  0
LINE
  5
D5
100
AcDbEntity
  8
LAYER_1
 62
     1
  6
CONTINUOUS
370
    -3
100
AcDbLine
 10
-7.61310263
 20
-7.4934027
 30
0.0
 11
-7.61310263
 21
-7.6054027
 31
0.0
  0
LINE
  5
D6
100
AcDbEntity
  8
LAYER_1
 62
     1
  6
CONTINUOUS
370
    -3
100
AcDbLine
 10
-7.60410263
 20
-7.4934027
 30
0.0
 11
-7.60410263
 21
-7.6054027
 31
0.0
  0
LINE
  5
D7
100
AcDbEntity
  8
LAYER_1
 62
     1
  6
CONTINUOUS
370
    -3
100
AcDbLine
 10
-7.59510263
 20
-7.4934027
 30
0.0
 11
-7.59510263
 21
-7.6054027
 31
0.0
  0
LINE
  5
D8
100
AcDbEntity
  8
LAYER_1
 62
     1
  6
CONTINUOUS
370
    -3
100
AcDbLine
 10
-7.58110263
 20
-7.4934027
 30
0.0
 11
-7.58110263
 21
-7.6054027
 31
0.0
  0
LINE
  5
D9
100
AcDbEntity
  8
LAYER_1
 62
     1
  6
CONTINUOUS
370
    -3
100
AcDbLine
 10
-7.56710263
 20
-7.4934027
 30
0.0
 11
-7.56710263
 21
-7.6054027
 31
0.0
  0
LINE
  5
DA
100
AcDbEntity
  8
LAYER_1
 62
     1
  6
CONTINUOUS
370
    -3
100
AcDbLine
 10
-7.55310263
 20
-7.4934027
 30
0.0
 11
-7.55310263
 21
-7.6054027
 31
0.0
  0
LINE
  5
DB
100
AcDbEntity
  8
LAYER_1
 62
     1
  6
CONTINUOUS
370
    -3
100
AcDbLine
 10
-7.53710263
 20
-7.4934027
 30
0.0
 11
-7.53710263
 21
-7.6264027
 31
0.0
  0
LINE
  5
DC
100
AcDbEntity
  8
LAYER_1
 62
     1
  6
CONTINUOUS
370
    -3
100
AcDbLine
 10
-7.52410263
 20
-7.4934027
 30
0.0
 11
-7.52410263
 21
-7.6264027
 31
0.0
  0
LINE
  5
DD
100
AcDbEntity
  8
LAYER_1
 62
     7
  6
CONTINUOUS
370
    -3
100
AcDbLine
 10
-7.48810263
 20
-7.5094027
 30
0.0
 11
-7.66210263
 21
-7.5094027
 31
0.0
  0
LINE
  5
DE
100
AcDbEntity
  8
LAYER_1
 62
     7
  6
CONTINUOUS
370
    -3
100
AcDbLine
 10
-7.66210263
 20
-7.5414027
 30
0.0
 11
-7.48810263
 21
-7.5414027
 31
0.0
  0
LINE
  5
DF
100
AcDbEntity
  8
LAYER_1
 62
     7
  6
CONTINUOUS
370
    -3
100
AcDbLine
 10
-7.66210263
 20
-7.5734027
 30
0.0
 11
-7.48810263
 21
-7.5734027
 31
0.0
  0
LINE
  5
E0
100
AcDbEntity
  8
LAYER_1
 62
     1
  6
CONTINUOUS
370
    -3
100
AcDbLine
 10
-7.66210263
 20
-7.6124027
 30
0.0
 11
-7.52410263
 21
-7.6124027
 31
0.0
  0
LINE
  5
E1
100
AcDbEntity
  8
LAYER_1
 62
     1
  6
CONTINUOUS
370
    -3
100
AcDbLine
 10
-7.66210263
 20
-7.6194027
 30
0.0
 11
-7.52410263
 21
-7.6194027
 31
0.0
  0
LINE
  5
E2
100
AcDbEntity
  8
LAYER_1
 62
     1
  6
CONTINUOUS
370
    -3
100
AcDbLine
 10
-7.66210263
 20
-7.6264027
 30
0.0
 11
-7.48810263
 21
-7.6264027
 31
0.0
  0
LINE
  5
E3
100
AcDbEntity
  8
LAYER_1
 62
     1
  6
CONTINUOUS
370
    -3
100
AcDbLine
 10
-7.66210263
 20
-7.6269027
 30
0.0
 11
-7.48810263
 21
-7.6269027
 31
0.0
  0
LINE
  5
E4
100
AcDbEntity
  8
LAYER_1
 62
     1
  6
CONTINUOUS
370
    -3
100
AcDbLine
 10
-7.66210263
 20
-7.6579027
 30
0.0
 11
-7.48810263
 21
-7.6579027
 31
0.0
  0
LINE
  5
E5
100
AcDbEntity
  8
LAYER_1
 62
     7
  6
CONTINUOUS
370
    -3
100
AcDbLine
 10
-7.66210263
 20
-7.6054027
 30
0.0
 11
-7.48810263
 21
-7.6054027
 31
0.0
  0
LWPOLYLINE
  5
E6
102
{ACAD_REACTORS
330
E7
102
}
100
AcDbEntity
  8
LAYER_1
 62
     1
  6
CONTINUOUS
370
    -3
100
AcDbPolyline
 90
        4
 70
     1
 43
0.0
 10
-7.65410263
 20
-7.6054027
 10
-7.53710263
 20
-7.6054027
 10
-7.53710263
 20
-7.6124027
 10
-7.65410263
 20
-7.6124027
  0
HATCH
  5
E7
100
AcDbEntity
  8
LAYER_1
 62
   253
  6
CONTINUOUS
100
AcDbHatch
 10
0.0
 20
0.0
 30
0.0
210
0.0
220
0.0
230
1.0
  2
SOLID
 70
     1
 71
     1
 91
        1
 92
        7
 72
     0
 73
     1
 93
        4
 10
-7.65410263
 20
-7.6054027
 10
-7.53710263
 20
-7.6054027
 10
-7.53710263
 20
-7.6124027
 10
-7.65410263
 20
-7.6124027
 97
        1
330
E6
 75
     0
 76
     2
 47
0.775229
 98
        1
 10
0.0
 20
0.0
  0
LWPOLYLINE
  5
E8
102
{ACAD_REACTORS
330
E9
102
}
100
AcDbEntity
  8
LAYER_1
 62
   190
  6
CONTINUOUS
370
    -3
100
AcDbPolyline
 90
        4
 70
     1
 43
0.0
 10
-7.66210263
 20
-7.6269027
 10
-7.57210263
 20
-7.6269027
 10
-7.57210263
 20
-7.6349027
 10
-7.66210263
 20
-7.6349027
  0
HATCH
  5
E9
100
AcDbEntity
  8
LAYER_1
 62
   253
  6
CONTINUOUS
100
AcDbHatch
 10
0.0
 20
0.0
 30
0.0
210
0.0
220
0.0
230
1.0
  2
SOLID
 70
     1
 71
     1
 91
        1
 92
        7
 72
     0
 73
     1
 93
        4
 10
-7.66210263
 20
-7.6269027
 10
-7.57210263
 20
-7.6269027
 10
-7.57210263
 20
-7.6349027
 10
-7.66210263
 20
-7.6349027
 97
        1
330
E8
 75
     0
 76
     2
 47
0.775229
 98
        1
 10
0.0
 20
0.0
  0
LWPOLYLINE
  5
EA
100
AcDbEntity
  8
LAYER_1
 62
     1
  6
CONTINUOUS
370
    -3
100
AcDbPolyline
 90
        5
 70
     0
 43
0.0
 10
-7.51415421
 20
-7.52710608
 10
-7.50915421
 20
-7.52710608
 10
-7.50915421
 20
-7.52610608
 10
-7.51415421
 20
-7.52610608
 10
-7.51415421
 20
-7.52710608
  0
LWPOLYLINE
  5
EB
100
AcDbEntity
  8
LAYER_1
 62
     1
  6
CONTINUOUS
370
    -3
100
AcDbPolyline
 90
        5
 70
     0
 43
0.0
 10
-7.50427707
 20
-7.52710608
 10
-7.49927707
 20
-7.52710608
 10
-7.49927707
 20
-7.52610608
 10
-7.50427707
 20
-7.52610608
 10
-7.50427707
 20
-7.52710608
  0
LWPOLYLINE
  5
EC
102
{ACAD_REACTORS
330
ED
102
}
100
AcDbEntity
  8
LAYER_1
 62
     1
  6
CONTINUOUS
370
    -3
100
AcDbPolyline
 90
        4
 70
     1
 43
0.0
 10
-7.50822503
 20
-7.52660608
 10
-7.50772503
 20
-7.52610608
 10
-7.50722503
 20
-7.52660608
 10
-7.50772503
 20
-7.52710608
  0
HATCH
  5
ED
100
AcDbEntity
  8
LAYER_1
 62
     9
  6
CONTINUOUS
100
AcDbHatch
 10
0.0
 20
0.0
 30
0.0
210
0.0
220
0.0
230
1.0
  2
SOLID
 70
     1
 71
     1
 91
        1
 92
        7
 72
     0
 73
     1
 93
        4
 10
-7.50822503
 20
-7.52660608
 10
-7.50772503
 20
-7.52610608
 10
-7.50722503
 20
-7.52660608
 10
-7.50772503
 20
-7.52710608
 97
        1
330
EC
 75
     0
 76
     2
 47
0.775229
 98
        1
 10
0.0
 20
0.0
  0
LWPOLYLINE
  5
EE
102
{ACAD_REACTORS
330
EF
102
}
100
AcDbEntity
  8
LAYER_1
 62
     1
  6
CONTINUOUS
370
    -3
100
AcDbPolyline
 90
        4
 70
     1
 43
0.0
 10
-7.50722503
 20
-7.52660608
 10
-7.50672503
 20
-7.52610608
 10
-7.50622503
 20
-7.52660608
 10
-7.50672503
 20
-7.52710608
  0
HATCH
  5
EF
100
AcDbEntity
  8
LAYER_1
 62
     9
  6
CONTINUOUS
100
AcDbHatch
 10
0.0
 20
0.0
 30
0.0
210
0.0
220
0.0
230
1.0
  2
SOLID
 70
     1
 71
     1
 91
        1
 92
        7
 72
     0
 73
     1
 93
        4
 10
-7.50722503
 20
-7.52660608
 10
-7.50672503
 20
-7.52610608
 10
-7.50622503
 20
-7.52660608
 10
-7.50672503
 20
-7.52710608
 97
        1
330
EE
 75
     0
 76
     2
 47
0.775229
 98
        1
 10
0.0
 20
0.0
  0
LWPOLYLINE
  5
F0
102
{ACAD_REACTORS
330
F1
102
}
100
AcDbEntity
  8
LAYER_1
 62
     1
  6
CONTINUOUS
370
    -3
100
AcDbPolyline
 90
        4
 70
     1
 43
0.0
 10
-7.50622503
 20
-7.52660608
 10
-7.50572503
 20
-7.52610608
 10
-7.50522503
 20
-7.52660608
 10
-7.50572503
 20
-7.52710608
  0
HATCH
  5
F1
100
AcDbEntity
  8
LAYER_1
 62
     9
  6
CONTINUOUS
100
AcDbHatch
 10
0.0
 20
0.0
 30
0.0
210
0.0
220
0.0
230
1.0
  2
SOLID
 70
     1
 71
     1
 91
        1
 92
        7
 72
     0
 73
     1
 93
        4
 10
-7.50622503
 20
-7.52660608
 10
-7.50572503
 20
-7.52610608
 10
-7.50522503
 20
-7.52660608
 10
-7.50572503
 20
-7.52710608
 97
        1
330
F0
 75
     0
 76
     2
 47
0.775229
 98
        1
 10
0.0
 20
0.0
  0
LWPOLYLINE
  5
F2
102
{ACAD_REACTORS
330
F3
102
}
100
AcDbEntity
  8
LAYER_1
 62
     1
  6
CONTINUOUS
370
    -3
100
AcDbPolyline
 90
        5
 70
     1
 43
0.0
 10
-7.50915421
 20
-7.52653526
 10
-7.50872503
 20
-7.52610608
 10
-7.50822503
 20
-7.52660608
 10
-7.50872503
 20
-7.52710608
 10
-7.50915421
 20
-7.5266769
  0
HATCH
  5
F3
100
AcDbEntity
  8
LAYER_1
 62
     9
  6
CONTINUOUS
100
AcDbHatch
 10
0.0
 20
0.0
 30
0.0
210
0.0
220
0.0
230
1.0
  2
SOLID
 70
     1
 71
     1
 91
        1
 92
        7
 72
     0
 73
     1
 93
        5
 10
-7.50915421
 20
-7.52653526
 10
-7.50872503
 20
-7.52610608
 10
-7.50822503
 20
-7.52660608
 10
-7.50872503
 20
-7.52710608
 10
-7.50915421
 20
-7.5266769
 97
        1
330
F2
 75
     0
 76
     2
 47
0.775229
 98
        1
 10
0.0
 20
0.0
  0
LWPOLYLINE
  5
F4
102
{ACAD_REACTORS
330
F5
102
}
100
AcDbEntity
  8
LAYER_1
 62
     1
  6
CONTINUOUS
370
    -3
100
AcDbPolyline
 90
        5
 70
     1
 43
0.0
 10
-7.50522503
 20
-7.52660608
 10
-7.50472503
 20
-7.52610608
 10
-7.50427707
 20
-7.52655404
 10
-7.50427707
 20
-7.52665812
 10
-7.50472503
 20
-7.52710608
  0
HATCH
  5
F5
100
AcDbEntity
  8
LAYER_1
 62
     9
  6
CONTINUOUS
100
AcDbHatch
 10
0.0
 20
0.0
 30
0.0
210
0.0
220
0.0
230
1.0
  2
SOLID
 70
     1
 71
     1
 91
        1
 92
        7
 72
     0
 73
     1
 93
        5
 10
-7.50522503
 20
-7.52660608
 10
-7.50472503
 20
-7.52610608
 10
-7.50427707
 20
-7.52655404
 10
-7.50427707
 20
-7.52665812
 10
-7.50472503
 20
-7.52710608
 97
        1
330
F4
 75
     0
 76
     2
 47
0.775229
 98
        1
 10
0.0
 20
0.0
  0
LWPOLYLINE
  5
F6
100
AcDbEntity
  8
LAYER_1
 62
     1
  6
CONTINUOUS
370
    -3
100
AcDbPolyline
 90
        5
 70
     0
 43
0.0
 10
-7.51415421
 20
-7.55333977
 10
-7.50915421
 20
-7.55333977
 10
-7.50915421
 20
-7.55233977
 10
-7.51415421
 20
-7.55233977
 10
-7.51415421
 20
-7.55333977
  0
LWPOLYLINE
  5
F7
100
AcDbEntity
  8
LAYER_1
 62
     1
  6
CONTINUOUS
370
    -3
100
AcDbPolyline
 90
        5
 70
     0
 43
0.0
 10
-7.50427707
 20
-7.55333977
 10
-7.49927707
 20
-7.55333977
 10
-7.49927707
 20
-7.55233977
 10
-7.50427707
 20
-7.55233977
 10
-7.50427707
 20
-7.55333977
  0
LWPOLYLINE
  5
F8
102
{ACAD_REACTORS
330
F9
102
}
100
AcDbEntity
  8
LAYER_1
 62
     1
  6
CONTINUOUS
370
    -3
100
AcDbPolyline
 90
        4
 70
     1
 43
0.0
 10
-7.50822503
 20
-7.55283977
 10
-7.50772503
 20
-7.55233977
 10
-7.50722503
 20
-7.55283977
 10
-7.50772503
 20
-7.55333977
  0
HATCH
  5
F9
100
AcDbEntity
  8
LAYER_1
 62
     9
  6
CONTINUOUS
100
AcDbHatch
 10
0.0
 20
0.0
 30
0.0
210
0.0
220
0.0
230
1.0
  2
SOLID
 70
     1
 71
     1
 91
        1
 92
        7
 72
     0
 73
     1
 93
        4
 10
-7.50822503
 20
-7.55283977
 10
-7.50772503
 20
-7.55233977
 10
-7.50722503
 20
-7.55283977
 10
-7.50772503
 20
-7.55333977
 97
        1
330
F8
 75
     0
 76
     2
 47
0.775229
 98
        1
 10
0.0
 20
0.0
  0
LWPOLYLINE
  5
FA
102
{ACAD_REACTORS
330
FB
102
}
100
AcDbEntity
  8
LAYER_1
 62
     1
  6
CONTINUOUS
370
    -3
100
AcDbPolyline
 90
        4
 70
     1
 43
0.0
 10
-7.50722503
 20
-7.55283977
 10
-7.50672503
 20
-7.55233977
 10
-7.50622503
 20
-7.55283977
 10
-7.50672503
 20
-7.55333977
  0
HATCH
  5
FB
100
AcDbEntity
  8
LAYER_1
 62
     9
  6
CONTINUOUS
100
AcDbHatch
 10
0.0
 20
0.0
 30
0.0
210
0.0
220
0.0
230
1.0
  2
SOLID
 70
     1
 71
     1
 91
        1
 92
        7
 72
     0
 73
     1
 93
        4
 10
-7.50722503
 20
-7.55283977
 10
-7.50672503
 20
-7.55233977
 10
-7.50622503
 20
-7.55283977
 10
-7.50672503
 20
-7.55333977
 97
        1
330
FA
 75
     0
 76
     2
 47
0.775229
 98
        1
 10
0.0
 20
0.0
  0
LWPOLYLINE
  5
FC
102
{ACAD_REACTORS
330
FD
102
}
100
AcDbEntity
  8
LAYER_1
 62
     1
  6
CONTINUOUS
370
    -3
100
AcDbPolyline
 90
        4
 70
     1
 43
0.0
 10
-7.50622503
 20
-7.55283977
 10
-7.50572503
 20
-7.55233977
 10
-7.50522503
 20
-7.55283977
 10
-7.50572503
 20
-7.55333977
  0
HATCH
  5
FD
100
AcDbEntity
  8
LAYER_1
 62
     9
  6
CONTINUOUS
100
AcDbHatch
 10
0.0
 20
0.0
 30
0.0
210
0.0
220
0.0
230
1.0
  2
SOLID
 70
     1
 71
     1
 91
        1
 92
        7
 72
     0
 73
     1
 93
        4
 10
-7.50622503
 20
-7.55283977
 10
-7.50572503
 20
-7.55233977
 10
-7.50522503
 20
-7.55283977
 10
-7.50572503
 20
-7.55333977
 97
        1
330
FC
 75
     0
 76
     2
 47
0.775229
 98
        1
 10
0.0
 20
0.0
  0
LWPOLYLINE
  5
FE
102
{ACAD_REACTORS
330
FF
102
}
100
AcDbEntity
  8
LAYER_1
 62
     1
  6
CONTINUOUS
370
    -3
100
AcDbPolyline
 90
        5
 70
     1
 43
0.0
 10
-7.50915421
 20
-7.55276895
 10
-7.50872503
 20
-7.55233977
 10
-7.50822503
 20
-7.55283977
 10
-7.50872503
 20
-7.55333977
 10
-7.50915421
 20
-7.55291059
  0
HATCH
  5
FF
100
AcDbEntity
  8
LAYER_1
 62
     9
  6
CONTINUOUS
100
AcDbHatch
 10
0.0
 20
0.0
 30
0.0
210
0.0
220
0.0
230
1.0
  2
SOLID
 70
     1
 71
     1
 91
        1
 92
        7
 72
     0
 73
     1
 93
        5
 10
-7.50915421
 20
-7.55276895
 10
-7.50872503
 20
-7.55233977
 10
-7.50822503
 20
-7.55283977
 10
-7.50872503
 20
-7.55333977
 10
-7.50915421
 20
-7.55291059
 97
        1
330
FE
 75
     0
 76
     2
 47
0.775229
 98
        1
 10
0.0
 20
0.0
  0
LWPOLYLINE
  5
100
102
{ACAD_REACTORS
330
101
102
}
100
AcDbEntity
  8
LAYER_1
 62
     1
  6
CONTINUOUS
370
    -3
100
AcDbPolyline
 90
        5
 70
     1
 43
0.0
 10
-7.50522503
 20
-7.55283977
 10
-7.50472503
 20
-7.55233977
 10
-7.50427707
 20
-7.55278773
 10
-7.50427707
 20
-7.55289181
 10
-7.50472503
 20
-7.55333977
  0
HATCH
  5
101
100
AcDbEntity
  8
LAYER_1
 62
     9
  6
CONTINUOUS
100
AcDbHatch
 10
0.0
 20
0.0
 30
0.0
210
0.0
220
0.0
230
1.0
  2
SOLID
 70
     1
 71
     1
 91
        1
 92
        7
 72
     0
 73
     1
 93
        5
 10
-7.50522503
 20
-7.55283977
 10
-7.50472503
 20
-7.55233977
 10
-7.50427707
 20
-7.55278773
 10
-7.50427707
 20
-7.55289181
 10
-7.50472503
 20
-7.55333977
 97
        1
330
100
 75
     0
 76
     2
 47
0.775229
 98
        1
 10
0.0
 20
0.0
  0
LWPOLYLINE
  5
102
100
AcDbEntity
  8
LAYER_1
 62
     1
  6
CONTINUOUS
370
    -3
100
AcDbPolyline
 90
        4
 70
     0
 43
0.0
 10
-7.49927707
 20
-7.55333977
 10
-7.49927707
 20
-7.56083977
 10
-7.50027707
 20
-7.56083977
 10
-7.50027707
 20
-7.55333977
  0
LWPOLYLINE
  5
103
102
{ACAD_REACTORS
330
104
102
}
100
AcDbEntity
  8
LAYER_1
 62
     1
  6
CONTINUOUS
370
    -3
100
AcDbPolyline
 90
        4
 70
     1
 43
0.0
 10
-7.50027707
 20
-7.55583977
 10
-7.49927707
 20
-7.55583977
 10
-7.49927707
 20
-7.55833977
 10
-7.50027707
 20
-7.55833977
  0
HATCH
  5
104
100
AcDbEntity
  8
LAYER_1
 62
     9
  6
CONTINUOUS
100
AcDbHatch
 10
0.0
 20
0.0
 30
0.0
210
0.0
220
0.0
230
1.0
  2
SOLID
 70
     1
 71
     1
 91
        1
 92
        7
 72
     0
 73
     1
 93
        4
 10
-7.50027707
 20
-7.55583977
 10
-7.49927707
 20
-7.55583977
 10
-7.49927707
 20
-7.55833977
 10
-7.50027707
 20
-7.55833977
 97
        1
330
103
 75
     0
 76
     2
 47
0.775229
 98
        1
 10
0.0
 20
0.0
  0
LWPOLYLINE
  5
105
100
AcDbEntity
  8
LAYER_1
 62
     1
  6
CONTINUOUS
370
    -3
100
AcDbPolyline
 90
        5
 70
     0
 43
0.0
 10
-7.51415421
 20
-7.58937981
 10
-7.50915421
 20
-7.58937981
 10
-7.50915421
 20
-7.58837981
 10
-7.51415421
 20
-7.58837981
 10
-7.51415421
 20
-7.58937981
  0
LWPOLYLINE
  5
106
100
AcDbEntity
  8
LAYER_1
 62
     1
  6
CONTINUOUS
370
    -3
100
AcDbPolyline
 90
        5
 70
     0
 43
0.0
 10
-7.50427707
 20
-7.58937981
 10
-7.49927707
 20
-7.58937981
 10
-7.49927707
 20
-7.58837981
 10
-7.50427707
 20
-7.58837981
 10
-7.50427707
 20
-7.58937981
  0
LWPOLYLINE
  5
107
102
{ACAD_REACTORS
330
108
102
}
100
AcDbEntity
  8
LAYER_1
 62
     1
  6
CONTINUOUS
370
    -3
100
AcDbPolyline
 90
        4
 70
     1
 43
0.0
 10
-7.50822503
 20
-7.58887981
 10
-7.50772503
 20
-7.58837981
 10
-7.50722503
 20
-7.58887981
 10
-7.50772503
 20
-7.58937981
  0
HATCH
  5
108
100
AcDbEntity
  8
LAYER_1
 62
     9
  6
CONTINUOUS
100
AcDbHatch
 10
0.0
 20
0.0
 30
0.0
210
0.0
220
0.0
230
1.0
  2
SOLID
 70
     1
 71
     1
 91
        1
 92
        7
 72
     0
 73
     1
 93
        4
 10
-7.50822503
 20
-7.58887981
 10
-7.50772503
 20
-7.58837981
 10
-7.50722503
 20
-7.58887981
 10
-7.50772503
 20
-7.58937981
 97
        1
330
107
 75
     0
 76
     2
 47
0.775229
 98
        1
 10
0.0
 20
0.0
  0
LWPOLYLINE
  5
109
102
{ACAD_REACTORS
330
10A
102
}
100
AcDbEntity
  8
LAYER_1
 62
     1
  6
CONTINUOUS
370
    -3
100
AcDbPolyline
 90
        4
 70
     1
 43
0.0
 10
-7.50722503
 20
-7.58887981
 10
-7.50672503
 20
-7.58837981
 10
-7.50622503
 20
-7.58887981
 10
-7.50672503
 20
-7.58937981
  0
HATCH
  5
10A
100
AcDbEntity
  8
LAYER_1
 62
     9
  6
CONTINUOUS
100
AcDbHatch
 10
0.0
 20
0.0
 30
0.0
210
0.0
220
0.0
230
1.0
  2
SOLID
 70
     1
 71
     1
 91
        1
 92
        7
 72
     0
 73
     1
 93
        4
 10
-7.50722503
 20
-7.58887981
 10
-7.50672503
 20
-7.58837981
 10
-7.50622503
 20
-7.58887981
 10
-7.50672503
 20
-7.58937981
 97
        1
330
109
 75
     0
 76
     2
 47
0.775229
 98
        1
 10
0.0
 20
0.0
  0
LWPOLYLINE
  5
10B
102
{ACAD_REACTORS
330
10C
102
}
100
AcDbEntity
  8
LAYER_1
 62
     1
  6
CONTINUOUS
370
    -3
100
AcDbPolyline
 90
        4
 70
     1
 43
0.0
 10
-7.50622503
 20
-7.58887981
 10
-7.50572503
 20
-7.58837981
 10
-7.50522503
 20
-7.58887981
 10
-7.50572503
 20
-7.58937981
  0
HATCH
  5
10C
100
AcDbEntity
  8
LAYER_1
 62
     9
  6
CONTINUOUS
100
AcDbHatch
 10
0.0
 20
0.0
 30
0.0
210
0.0
220
0.0
230
1.0
  2
SOLID
 70
     1
 71
     1
 91
        1
 92
        7
 72
     0
 73
     1
 93
        4
 10
-7.50622503
 20
-7.58887981
 10
-7.50572503
 20
-7.58837981
 10
-7.50522503
 20
-7.58887981
 10
-7.50572503
 20
-7.58937981
 97
        1
330
10B
 75
     0
 76
     2
 47
0.775229
 98
        1
 10
0.0
 20
0.0
  0
LWPOLYLINE
  5
10D
102
{ACAD_REACTORS
330
10E
102
}
100
AcDbEntity
  8
LAYER_1
 62
     1
  6
CONTINUOUS
370
    -3
100
AcDbPolyline
 90
        5
 70
     1
 43
0.0
 10
-7.50915421
 20
-7.58880899
 10
-7.50872503
 20
-7.58837981
 10
-7.50822503
 20
-7.58887981
 10
-7.50872503
 20
-7.58937981
 10
-7.50915421
 20
-7.58895063
  0
HATCH
  5
10E
100
AcDbEntity
  8
LAYER_1
 62
     9
  6
CONTINUOUS
100
AcDbHatch
 10
0.0
 20
0.0
 30
0.0
210
0.0
220
0.0
230
1.0
  2
SOLID
 70
     1
 71
     1
 91
        1
 92
        7
 72
     0
 73
     1
 93
        5
 10
-7.50915421
 20
-7.58880899
 10
-7.50872503
 20
-7.58837981
 10
-7.50822503
 20
-7.58887981
 10
-7.50872503
 20
-7.58937981
 10
-7.50915421
 20
-7.58895063
 97
        1
330
10D
 75
     0
 76
     2
 47
0.775229
 98
        1
 10
0.0
 20
0.0
  0
LWPOLYLINE
  5
10F
102
{ACAD_REACTORS
330
110
102
}
100
AcDbEntity
  8
LAYER_1
 62
     1
  6
CONTINUOUS
370
    -3
100
AcDbPolyline
 90
        5
 70
     1
 43
0.0
 10
-7.50522503
 20
-7.58887981
 10
-7.50472503
 20
-7.58837981
 10
-7.50427707
 20
-7.58882777
 10
-7.50427707
 20
-7.58893185
 10
-7.50472503
 20
-7.58937981
  0
HATCH
  5
110
100
AcDbEntity
  8
LAYER_1
 62
     9
  6
CONTINUOUS
100
AcDbHatch
 10
0.0
 20
0.0
 30
0.0
210
0.0
220
0.0
230
1.0
  2
SOLID
 70
     1
 71
     1
 91
        1
 92
        7
 72
     0
 73
     1
 93
        5
 10
-7.50522503
 20
-7.58887981
 10
-7.50472503
 20
-7.58837981
 10
-7.50427707
 20
-7.58882777
 10
-7.50427707
 20
-7.58893185
 10
-7.50472503
 20
-7.58937981
 97
        1
330
10F
 75
     0
 76
     2
 47
0.775229
 98
        1
 10
0.0
 20
0.0
  0
LWPOLYLINE
  5
111
100
AcDbEntity
  8
LAYER_1
 62
     1
  6
CONTINUOUS
370
    -3
100
AcDbPolyline
 90
        4
 70
     0
 43
0.0
 10
-7.49927707
 20
-7.58937981
 10
-7.49927707
 20
-7.59687981
 10
-7.50027707
 20
-7.59687981
 10
-7.50027707
 20
-7.58937981
  0
LWPOLYLINE
  5
112
102
{ACAD_REACTORS
330
113
102
}
100
AcDbEntity
  8
LAYER_1
 62
     1
  6
CONTINUOUS
370
    -3
100
AcDbPolyline
 90
        4
 70
     1
 43
0.0
 10
-7.50027707
 20
-7.59187981
 10
-7.49927707
 20
-7.59187981
 10
-7.49927707
 20
-7.59437981
 10
-7.50027707
 20
-7.59437981
  0
HATCH
  5
113
100
AcDbEntity
  8
LAYER_1
 62
     9
  6
CONTINUOUS
100
AcDbHatch
 10
0.0
 20
0.0
 30
0.0
210
0.0
220
0.0
230
1.0
  2
SOLID
 70
     1
 71
     1
 91
        1
 92
        7
 72
     0
 73
     1
 93
        4
 10
-7.50027707
 20
-7.59187981
 10
-7.49927707
 20
-7.59187981
 10
-7.49927707
 20
-7.59437981
 10
-7.50027707
 20
-7.59437981
 97
        1
330
112
 75
     0
 76
     2
 47
0.775229
 98
        1
 10
0.0
 20
0.0
  0
LWPOLYLINE
  5
114
100
AcDbEntity
  8
LAYER_1
 62
     1
  6
CONTINUOUS
370
    -3
100
AcDbPolyline
 90
        4
 70
     0
 43
0.0
 10
-7.51415421
 20
-7.58837981
 10
-7.51415421
 20
-7.58087981
 10
-7.51315421
 20
-7.58087981
 10
-7.51315421
 20
-7.58837981
  0
TEXT
  5
115
100
AcDbEntity
  8
LAYER_1
 62
     7
370
    35
100
AcDbText
 10
-7.66210263
 20
-7.40294139
 30
0.0
 40
0.006
  1
BASY
  7
ARIAL
 50
0.0
 41
1.0
 51
0.0
100
AcDbText
  0
TEXT
  5
116
100
AcDbEntity
  8
LAYER_1
 62
     7
370
    18
100
AcDbText
 10
-7.63949036
 20
-7.40294139
 30
0.0
 40
0.006
  1
TREP
  7
ARIAL
 50
0.0
 41
1.0
 51
0.0
100
AcDbText
  0
TEXT
  5
117
100
AcDbEntity
  8
LAYER_1
 62
     7
370
    18
100
AcDbText
 10
-7.58310263
 20
-7.40144139
 30
0.0
 40
0.005
  1
Bestellliste
  7
ARIAL
 50
0.0
 41
1.0
 51
0.0
100
AcDbText
  0
TEXT
  5
118
100
AcDbEntity
  8
LAYER_1
 62
     7
370
    35
100
AcDbText
 10
-7.53771359
 20
-7.40044139
 30
0.0
 40
0.004
  1
Trittschalldämmende
  7
ARIAL
 50
0.0
 41
0.9
 51
0.0
100
AcDbText
  0
TEXT
  5
119
100
AcDbEntity
  8
LAYER_1
 62
     2
370
    18
100
AcDbText
 10
-7.66210263
 20
-7.41594139
 30
0.0
 40
0.003
  1
BASYS AG, Bausysteme
  7
ARIAL
 50
0.0
 41
0.9
 51
0.0
100
AcDbText
  0
TEXT
  5
11A
100
AcDbEntity
  8
LAYER_1
 62
     2
370
    18
100
AcDbText
 10
-7.61110263
 20
-7.41594139
 30
0.0
 40
0.003
  1
Tel. 034 448 23 23
  7
ARIAL
 50
0.0
 41
0.9
 51
0.0
100
AcDbText
  0
TEXT
  5
11B
100
AcDbEntity
  8
LAYER_1
 62
     2
370
    18
100
AcDbText
 10
-7.66210263
 20
-7.42094139
 30
0.0
 40
0.003
  1
Industrie Neuhof 33
  7
ARIAL
 50
0.0
 41
0.9
 51
0.0
100
AcDbText
  0
TEXT
  5
11C
100
AcDbEntity
  8
LAYER_1
 62
     2
370
    18
100
AcDbText
 10
-7.61110263
 20
-7.42094139
 30
0.0
 40
0.003
  1
Fax 034 448 23 20
  7
ARIAL
 50
0.0
 41
0.9
 51
0.0
100
AcDbText
  0
TEXT
  5
11D
100
AcDbEntity
  8
LAYER_1
 62
     2
370
    18
100
AcDbText
 10
-7.66210263
 20
-7.42594139
 30
0.0
 40
0.003
  1
3422 Kirchberg
  7
ARIAL
 50
0.0
 41
0.9
 51
0.0
100
AcDbText
  0
TEXT
  5
11E
100
AcDbEntity
  8
LAYER_1
 62
     2
370
    18
100
AcDbText
 10
-7.61110263
 20
-7.42594139
 30
0.0
 40
0.003
  1
www.basys.ch /
  7
ARIAL
 50
0.0
 41
0.9
 51
0.0
100
AcDbText
  0
TEXT
  5
11F
100
AcDbEntity
  8
LAYER_1
 62
     2
370
    35
100
AcDbText
 10
-7.58398251
 20
-7.42594139
 30
0.0
 40
0.003
  1
info@basys.ch
  7
ARIAL
 50
0.0
 41
0.9
 51
0.0
100
AcDbText
  0
TEXT
  5
120
100
AcDbEntity
  8
LAYER_1
 62
     1
370
    18
100
AcDbText
 10
-7.57810263
 20
-7.40753605
 30
0.0
 40
0.0015
  1
(Änderungen vorbehalten)
  7
ARIAL
 50
0.0
 41
0.9
 51
0.0
100
AcDbText
  0
TEXT
  5
121
100
AcDbEntity
  8
LAYER_1
 62
     1
370
    35
100
AcDbText
 10
-7.57575263
 20
-7.40453605
 30
0.0
 40
0.0015
  1
Ausgabe 2019 - CH
  7
ARIAL
 50
0.0
 41
0.9
 51
0.0
100
AcDbText
  0
TEXT
  5
122
100
AcDbEntity
  8
LAYER_1
 62
     2
370
    18
100
AcDbText
 10
-7.66060263
 20
-7.4384027
 30
0.0
 40
0.002
  1
Nr.:
  7
ARIAL
 50
0.0
 41
1.02
 51
0.0
100
AcDbText
  0
TEXT
  5
123
100
AcDbEntity
  8
LAYER_1
 62
     2
370
    18
100
AcDbText
 10
-7.58680262
 20
-7.4384027
 30
0.0
 40
0.002
  1
Plan Nr.:
  7
ARIAL
 50
0.0
 41
1.02
 51
0.0
100
AcDbText
  0
TEXT
  5
124
100
AcDbEntity
  8
LAYER_1
 62
     2
370
    18
100
AcDbText
 10
-7.52298026
 20
-7.4384027
 30
0.0
 40
0.002
  1
Datum:
  7
ARIAL
 50
0.0
 41
1.02
 51
0.0
100
AcDbText
  0
TEXT
  5
125
100
AcDbEntity
  8
LAYER_1
 62
     2
370
    18
100
AcDbText
 10
-7.66060263
 20
-7.4444027
 30
0.0
 40
0.002
  1
Objekt und Bauteil:
  7
ARIAL
 50
0.0
 41
1.02
 51
0.0
100
AcDbText
  0
TEXT
  5
126
100
AcDbEntity
  8
LAYER_1
 62
     2
370
    18
100
AcDbText
 10
-7.66060263
 20
-7.4494027
 30
0.0
 40
0.002
  1
Strasse, Nr.:
  7
ARIAL
 50
0.0
 41
1.02
 51
0.0
100
AcDbText
  0
TEXT
  5
127
100
AcDbEntity
  8
LAYER_1
 62
     2
370
    18
100
AcDbText
 10
-7.57360263
 20
-7.4494027
 30
0.0
 40
0.002
  1
PLZ, Ort:
  7
ARIAL
 50
0.0
 41
1.02
 51
0.0
100
AcDbText
  0
TEXT
  5
128
100
AcDbEntity
  8
LAYER_1
 62
     2
370
    18
100
AcDbText
 10
-7.57360263
 20
-7.4554027
 30
0.0
 40
0.002
  1
Lieferort:
  7
ARIAL
 50
0.0
 41
1.02
 51
0.0
100
AcDbText
  0
TEXT
  5
129
100
AcDbEntity
  8
LAYER_1
 62
     2
370
    18
100
AcDbText
 10
-7.66060263
 20
-7.4554027
 30
0.0
 40
0.002
  1
Ingenieurbüro:
  7
ARIAL
 50
0.0
 41
1.02
 51
0.0
100
AcDbText
  0
TEXT
  5
12A
100
AcDbEntity
  8
LAYER_1
 62
     2
370
    18
100
AcDbText
 10
-7.66060263
 20
-7.4669027
 30
0.0
 40
0.002
  1
zuständige Person:
  7
ARIAL
 50
0.0
 41
1.02
 51
0.0
100
AcDbText
  0
TEXT
  5
12B
100
AcDbEntity
  8
LAYER_1
 62
     2
370
    18
100
AcDbText
 10
-7.57360263
 20
-7.4669027
 30
0.0
 40
0.002
  1
Kommission:
  7
ARIAL
 50
0.0
 41
1.02
 51
0.0
100
AcDbText
  0
TEXT
  5
12C
100
AcDbEntity
  8
LAYER_1
 62
     2
370
    18
100
AcDbText
 10
-7.57360263
 20
-7.4709027
 30
0.0
 40
0.002
  1
Lieferbemerkung:
  7
ARIAL
 50
0.0
 41
1.02
 51
0.0
100
AcDbText
  0
TEXT
  5
12D
100
AcDbEntity
  8
LAYER_1
 62
     2
370
    18
100
AcDbText
 10
-7.66060263
 20
-7.4709027
 30
0.0
 40
0.002
  1
Bestellung geprüft am:
  7
ARIAL
 50
0.0
 41
1.02
 51
0.0
100
AcDbText
  0
TEXT
  5
12E
100
AcDbEntity
  8
LAYER_1
 62
     2
370
    18
100
AcDbText
 10
-7.57360263
 20
-7.4629027
 30
0.0
 40
0.002
  1
Liefertermin:
  7
ARIAL
 50
0.0
 41
1.02
 51
0.0
100
AcDbText
  0
TEXT
  5
12F
100
AcDbEntity
  8
LAYER_1
 62
     2
370
    18
100
AcDbText
 10
-7.66060263
 20
-7.4774027
 30
0.0
 40
0.002
  1
Bauunternehmer:
  7
ARIAL
 50
0.0
 41
1.02
 51
0.0
100
AcDbText
  0
TEXT
  5
130
100
AcDbEntity
  8
LAYER_1
 62
     2
370
    18
100
AcDbText
 10
-7.57360263
 20
-7.4774027
 30
0.0
 40
0.002
  1
Verrechnungsstelle:
  7
ARIAL
 50
0.0
 41
1.02
 51
0.0
100
AcDbText
  0
TEXT
  5
131
100
AcDbEntity
  8
LAYER_1
 62
     2
370
    18
100
AcDbText
 10
-7.57360263
 20
-7.4809027
 30
0.0
 40
0.002
  1
(Stahl- oder Baumaterialhandel)
  7
ARIAL
 50
0.0
 41
1.02
 51
0.0
100
AcDbText
  0
TEXT
  5
132
100
AcDbEntity
  8
LAYER_1
 62
     2
370
    18
100
AcDbText
 10
-7.66060263
 20
-7.4879027
 30
0.0
 40
0.002
  1
Bauführer:
  7
ARIAL
 50
0.0
 41
1.02
 51
0.0
100
AcDbText
  0
TEXT
  5
133
100
AcDbEntity
  8
LAYER_1
 62
     2
370
    18
100
AcDbText
 10
-7.66060263
 20
-7.4919027
 30
0.0
 40
0.002
  1
Baustellentelefon:
  7
ARIAL
 50
0.0
 41
1.02
 51
0.0
100
AcDbText
  0
TEXT
  5
134
100
AcDbEntity
  8
LAYER_1
 62
     7
370
    18
100
AcDbText
 10
-7.66085263
 20
-7.5004027
 30
0.0
 40
0.002
  1
Pos.
  7
ARIAL
 50
0.0
 41
1.0
 51
0.0
100
AcDbText
  0
TEXT
  5
135
100
AcDbEntity
  8
LAYER_1
 62
     7
370
    18
100
AcDbText
 10
-7.65210263
 20
-7.5004027
 30
0.0
 40
0.002
  1
BASYTREP
  7
ARIAL
 50
0.0
 41
1.0
 51
0.0
100
AcDbText
  0
TEXT
  5
136
100
AcDbEntity
  8
LAYER_1
 62
     2
370
    18
100
AcDbText
 10
-7.66060263
 20
-7.6619027
 30
0.0
 40
0.002
  1
Bestellung erhalten am:
  7
ARIAL
 50
0.0
 41
1.02
 51
0.0
100
AcDbText
  0
TEXT
  5
137
100
AcDbEntity
  8
LAYER_1
 62
     2
370
    18
100
AcDbText
 10
-7.58660263
 20
-7.6619027
 30
0.0
 40
0.002
  1
Mail
  7
ARIAL
 50
0.0
 41
1.02
 51
0.0
100
AcDbText
  0
TEXT
  5
138
100
AcDbEntity
  8
LAYER_1
 62
     2
370
    18
100
AcDbText
 10
-7.57560263
 20
-7.6619027
 30
0.0
 40
0.002
  1
per Tel.
  7
ARIAL
 50
0.0
 41
1.02
 51
0.0
100
AcDbText
  0
TEXT
  5
139
100
AcDbEntity
  8
LAYER_1
 62
     2
370
    18
100
AcDbText
 10
-7.55960263
 20
-7.6619027
 30
0.0
 40
0.002
  1
Fax
  7
ARIAL
 50
0.0
 41
1.02
 51
0.0
100
AcDbText
  0
TEXT
  5
13A
100
AcDbEntity
  8
LAYER_1
 62
     2
370
    18
100
AcDbText
 10
-7.54910263
 20
-7.6619027
 30
0.0
 40
0.002
  1
Post
  7
ARIAL
 50
0.0
 41
1.02
 51
0.0
100
AcDbText
  0
TEXT
  5
13B
100
AcDbEntity
  8
LAYER_1
 62
     2
370
    18
100
AcDbText
 10
-7.52610263
 20
-7.6619027
 30
0.0
 40
0.002
  1
Aufnahme durch:
  7
ARIAL
 50
0.0
 41
1.02
 51
0.0
100
AcDbText
  0
TEXT
  5
13C
100
AcDbEntity
  8
LAYER_1
 62
     2
370
    18
100
AcDbText
 10
-7.48434535
 20
-7.66338891
 30
0.0
 40
0.002
  1
09-19
  7
ARIAL
 50
89.9999975
 41
0.7
 51
0.0
100
AcDbText
  0
TEXT
  5
13D
100
AcDbEntity
  8
LAYER_1
 62
     2
370
    18
100
AcDbText
 10
-7.65210263
 20
-7.5144027
 30
0.0
 40
0.002
  1
F10
  7
ARIAL
 50
0.0
 41
1.0
 51
0.0
100
AcDbText
  0
TEXT
  5
13E
100
AcDbEntity
  8
LAYER_1
 62
     7
370
    35
100
AcDbText
 10
-7.52834372
 20
-7.40744139
 30
0.0
 40
0.004
  1
Treppenlagerung
  7
ARIAL
 50
0.0
 41
0.9
 51
0.0
100
AcDbText
  0
TEXT
  5
13F
100
AcDbEntity
  8
LAYER_1
 62
     7
370
    35
100
AcDbText
 10
-7.53628345
 20
-7.41444139
 30
0.0
 40
0.004
  1
und Sicherungsdorn
  7
ARIAL
 50
0.0
 41
0.9
 51
0.0
100
AcDbText
  0
TEXT
  5
140
100
AcDbEntity
  8
LAYER_1
 62
     7
370
    18
100
AcDbText
 10
-7.62990263
 20
-7.5004027
 30
0.0
 40
0.002
  1
Treppenlauf-
  7
ARIAL
 50
0.0
 41
1.0
 51
0.0
100
AcDbText
  0
TEXT
  5
141
100
AcDbEntity
  8
LAYER_1
 62
     7
370
    18
100
AcDbText
 10
-7.65210263
 20
-7.5049027
 30
0.0
 40
0.002
  1
Typ
  7
ARIAL
 50
0.0
 41
1.0
 51
0.0
100
AcDbText
  0
TEXT
  5
142
100
AcDbEntity
  8
LAYER_1
 62
     7
370
    18
100
AcDbText
 10
-7.62990263
 20
-7.5049027
 30
0.0
 40
0.002
  1
gewicht in kg
  7
ARIAL
 50
0.0
 41
1.0
 51
0.0
100
AcDbText
  0
TEXT
  5
143
100
AcDbEntity
  8
LAYER_1
 62
     7
370
    18
100
AcDbText
 10
-7.60935263
 20
-7.5084027
 30
0.0
 40
0.002
  1
Ortbeton-
  7
ARIAL
 50
89.9999975
 41
1.0
 51
0.0
100
AcDbText
  0
TEXT
  5
144
100
AcDbEntity
  8
LAYER_1
 62
     7
370
    18
100
AcDbText
 10
-7.60585263
 20
-7.5084027
 30
0.0
 40
0.002
  1
Treppe
  7
ARIAL
 50
89.9999975
 41
1.0
 51
0.0
100
AcDbText
  0
TEXT
  5
145
100
AcDbEntity
  8
LAYER_1
 62
     7
370
    18
100
AcDbText
 10
-7.59685263
 20
-7.5084027
 30
0.0
 40
0.002
  1
Treppe
  7
ARIAL
 50
89.9999975
 41
1.0
 51
0.0
100
AcDbText
  0
TEXT
  5
146
100
AcDbEntity
  8
LAYER_1
 62
     7
370
    18
100
AcDbText
 10
-7.60035263
 20
-7.5084027
 30
0.0
 40
0.002
  1
Vorfabrizierte
  7
ARIAL
 50
89.9999975
 41
0.9
 51
0.0
100
AcDbText
  0
TEXT
  5
147
100
AcDbEntity
  8
LAYER_1
 62
     7
370
    18
100
AcDbText
 10
-7.58910263
 20
-7.5004027
 30
0.0
 40
0.002
  1
a
  7
ARIAL
 50
0.0
 41
1.0
 51
0.0
100
AcDbText
  0
TEXT
  5
148
100
AcDbEntity
  8
LAYER_1
 62
     7
370
    18
100
AcDbText
 10
-7.59180263
 20
-7.5049027
 30
0.0
 40
0.002
  1
in mm
  7
ARIAL
 50
0.0
 41
1.0
 51
0.0
100
AcDbText
  0
TEXT
  5
149
100
AcDbEntity
  8
LAYER_1
 62
     7
370
    18
100
AcDbText
 10
-7.57510263
 20
-7.5004027
 30
0.0
 40
0.002
  1
u
  7
ARIAL
 50
0.0
 41
1.0
 51
0.0
100
AcDbText
  0
TEXT
  5
14A
100
AcDbEntity
  8
LAYER_1
 62
     7
370
    18
100
AcDbText
 10
-7.57780263
 20
-7.5049027
 30
0.0
 40
0.002
  1
in mm
  7
ARIAL
 50
0.0
 41
1.0
 51
0.0
100
AcDbText
  0
TEXT
  5
14B
100
AcDbEntity
  8
LAYER_1
 62
     7
370
    18
100
AcDbText
 10
-7.56110263
 20
-7.5004027
 30
0.0
 40
0.002
  1
o
  7
ARIAL
 50
0.0
 41
1.0
 51
0.0
100
AcDbText
  0
TEXT
  5
14C
100
AcDbEntity
  8
LAYER_1
 62
     7
370
    18
100
AcDbText
 10
-7.56380263
 20
-7.5049027
 30
0.0
 40
0.002
  1
in mm
  7
ARIAL
 50
0.0
 41
1.0
 51
0.0
100
AcDbText
  0
TEXT
  5
14D
100
AcDbEntity
  8
LAYER_1
 62
     7
370
    18
100
AcDbText
 10
-7.55190263
 20
-7.5004027
 30
0.0
 40
0.002
  1
Treppenlauf-
  7
ARIAL
 50
0.0
 41
0.9
 51
0.0
100
AcDbText
  0
TEXT
  5
14E
100
AcDbEntity
  8
LAYER_1
 62
     7
370
    18
100
AcDbText
 10
-7.55190263
 20
-7.5049027
 30
0.0
 40
0.002
  1
breite in mm
  7
ARIAL
 50
0.0
 41
0.9
 51
0.0
100
AcDbText
  0
TEXT
  5
14F
100
AcDbEntity
  8
LAYER_1
 62
     7
370
    18
100
AcDbText
 10
-7.53440263
 20
-7.5004027
 30
0.0
 40
0.002
  1
Anzahl
  7
ARIAL
 50
0.0
 41
0.9
 51
0.0
100
AcDbText
  0
TEXT
  5
150
100
AcDbEntity
  8
LAYER_1
 62
     7
370
    18
100
AcDbText
 10
-7.53370263
 20
-7.5049027
 30
0.0
 40
0.002
  1
Stück
  7
ARIAL
 50
0.0
 41
0.9
 51
0.0
100
AcDbText
  0
TEXT
  5
151
100
AcDbEntity
  8
LAYER_1
 62
     7
370
    18
100
AcDbText
 10
-7.51710263
 20
-7.5004027
 30
0.0
 40
0.002
  1
Treppenlagerform
  7
ARIAL
 50
0.0
 41
1.0
 51
0.0
100
AcDbText
  0
TEXT
  5
152
100
AcDbEntity
  8
LAYER_1
 62
     2
370
    18
100
AcDbText
 10
-7.65210263
 20
-7.5224027
 30
0.0
 40
0.002
  1
F15
  7
ARIAL
 50
0.0
 41
1.0
 51
0.0
100
AcDbText
  0
TEXT
  5
153
100
AcDbEntity
  8
LAYER_1
 62
     2
370
    18
100
AcDbText
 10
-7.65210263
 20
-7.5304027
 30
0.0
 40
0.002
  1
F20
  7
ARIAL
 50
0.0
 41
1.0
 51
0.0
100
AcDbText
  0
TEXT
  5
154
100
AcDbEntity
  8
LAYER_1
 62
     2
370
    18
100
AcDbText
 10
-7.65210263
 20
-7.5384027
 30
0.0
 40
0.002
  1
F25
  7
ARIAL
 50
0.0
 41
1.0
 51
0.0
100
AcDbText
  0
TEXT
  5
155
100
AcDbEntity
  8
LAYER_1
 62
     2
370
    18
100
AcDbText
 10
-7.65210263
 20
-7.5464027
 30
0.0
 40
0.002
  1
L10
  7
ARIAL
 50
0.0
 41
1.0
 51
0.0
100
AcDbText
  0
TEXT
  5
156
100
AcDbEntity
  8
LAYER_1
 62
     2
370
    18
100
AcDbText
 10
-7.65210263
 20
-7.5544027
 30
0.0
 40
0.002
  1
L15
  7
ARIAL
 50
0.0
 41
1.0
 51
0.0
100
AcDbText
  0
TEXT
  5
157
100
AcDbEntity
  8
LAYER_1
 62
     2
370
    18
100
AcDbText
 10
-7.65210263
 20
-7.5624027
 30
0.0
 40
0.002
  1
L20
  7
ARIAL
 50
0.0
 41
1.0
 51
0.0
100
AcDbText
  0
TEXT
  5
158
100
AcDbEntity
  8
LAYER_1
 62
     2
370
    18
100
AcDbText
 10
-7.65210263
 20
-7.5704027
 30
0.0
 40
0.002
  1
L25
  7
ARIAL
 50
0.0
 41
1.0
 51
0.0
100
AcDbText
  0
TEXT
  5
159
100
AcDbEntity
  8
LAYER_1
 62
     2
370
    18
100
AcDbText
 10
-7.65210263
 20
-7.5784027
 30
0.0
 40
0.002
  1
Z10
  7
ARIAL
 50
0.0
 41
1.0
 51
0.0
100
AcDbText
  0
TEXT
  5
15A
100
AcDbEntity
  8
LAYER_1
 62
     2
370
    18
100
AcDbText
 10
-7.65210263
 20
-7.5864027
 30
0.0
 40
0.002
  1
Z15
  7
ARIAL
 50
0.0
 41
1.0
 51
0.0
100
AcDbText
  0
TEXT
  5
15B
100
AcDbEntity
  8
LAYER_1
 62
     2
370
    18
100
AcDbText
 10
-7.65210263
 20
-7.5944027
 30
0.0
 40
0.002
  1
Z20
  7
ARIAL
 50
0.0
 41
1.0
 51
0.0
100
AcDbText
  0
TEXT
  5
15C
100
AcDbEntity
  8
LAYER_1
 62
     2
370
    18
100
AcDbText
 10
-7.65210263
 20
-7.6024027
 30
0.0
 40
0.002
  1
Z25
  7
ARIAL
 50
0.0
 41
1.0
 51
0.0
100
AcDbText
  0
TEXT
  5
15D
100
AcDbEntity
  8
LAYER_1
 62
     2
370
    18
100
AcDbText
 10
-7.65210263
 20
-7.6099027
 30
0.0
 40
0.002
  1
BASYPHON Treppenfuss-Sicherungsdorn
  7
ARIAL
 50
0.0
 41
1.0
 51
0.0
100
AcDbText
  0
TEXT
  5
15E
100
AcDbEntity
  8
LAYER_1
 62
     2
370
    18
100
AcDbText
 10
-7.65210263
 20
-7.6169027
 30
0.0
 40
0.002
  1
Einzeldorn Typ E20
  7
ARIAL
 50
0.0
 41
1.0
 51
0.0
100
AcDbText
  0
TEXT
  5
15F
100
AcDbEntity
  8
LAYER_1
 62
     2
370
    18
100
AcDbText
 10
-7.65210263
 20
-7.6239027
 30
0.0
 40
0.002
  1
Kunststoffhülse zu Einzeldorn Typ E20
  7
ARIAL
 50
0.0
 41
1.0
 51
0.0
100
AcDbText
  0
TEXT
  5
160
100
AcDbEntity
  8
LAYER_1
 62
     7
370
    18
100
AcDbText
 10
-7.66085263
 20
-7.6329027
 30
0.0
 40
0.003
  1
Spezialausführungen
  7
ARIAL
 50
0.0
 41
1.0
 51
0.0
100
AcDbText
  0
TEXT
  5
161
100
AcDbEntity
  8
LAYER_1
 62
     7
370
    18
100
AcDbText
 10
-7.52176779
 20
-7.58116818
 30
0.0
 40
0.003
  1
Z
  7
ARIAL
 50
0.0
 41
1.0
 51
0.0
100
AcDbText
  0
TEXT
  5
162
100
AcDbEntity
  8
LAYER_1
 62
     7
370
    18
100
AcDbText
 10
-7.52176779
 20
-7.55016818
 30
0.0
 40
0.003
  1
L
  7
ARIAL
 50
0.0
 41
1.0
 51
0.0
100
AcDbText
  0
TEXT
  5
163
100
AcDbEntity
  8
LAYER_1
 62
     7
370
    18
100
AcDbText
 10
-7.52176779
 20
-7.51816818
 30
0.0
 40
0.003
  1
F
  7
ARIAL
 50
0.0
 41
1.0
 51
0.0
100
AcDbText
  0
INSERT
  5
164
100
AcDbEntity
  8
LAYER_1
 62
     0
370
    -3
100
AcDbBlockReference
  2
*D1
 10
0.0
 20
0.0
 30
0.0
  0
INSERT
  5
165
100
AcDbEntity
  8
LAYER_1
 62
     0
370
    -3
100
AcDbBlockReference
  2
*D2
 10
0.0
 20
0.0
 30
0.0
  0
INSERT
  5
166
100
AcDbEntity
  8
LAYER_1
 62
     0
370
    -3
100
AcDbBlockReference
  2
*D3
 10
0.0
 20
0.0
 30
0.0
  0
INSERT
  5
167
100
AcDbEntity
  8
LAYER_1
 62
     0
370
    -3
100
AcDbBlockReference
  2
*D4
 10
0.0
 20
0.0
 30
0.0
  0
INSERT
  5
168
100
AcDbEntity
  8
LAYER_1
 62
     0
370
    -3
100
AcDbBlockReference
  2
*D5
 10
0.0
 20
0.0
 30
0.0
  0
INSERT
  5
169
100
AcDbEntity
  8
LAYER_1
 62
     0
370
    -3
100
AcDbBlockReference
  2
*D6
 10
0.0
 20
0.0
 30
0.0
  0
INSERT
  5
16A
100
AcDbEntity
  8
LAYER_1
 62
     0
370
    -3
100
AcDbBlockReference
  2
*D7
 10
0.0
 20
0.0
 30
0.0
  0
INSERT
  5
16B
100
AcDbEntity
  8
LAYER_1
 62
     0
370
    -3
100
AcDbBlockReference
  2
*D8
 10
0.0
 20
0.0
 30
0.0
  0
INSERT
  5
16C
100
AcDbEntity
  8
LAYER_1
 62
     0
370
    -3
100
AcDbBlockReference
  2
*D9
 10
0.0
 20
0.0
 30
0.0
  0
INSERT
  5
16D
100
AcDbEntity
  8
LAYER_1
 62
     0
370
    -3
100
AcDbBlockReference
  2
*D10
 10
0.0
 20
0.0
 30
0.0
  0
INSERT
  5
16E
100
AcDbEntity
  8
LAYER_1
 62
     0
370
    -3
100
AcDbBlockReference
  2
*D11
 10
0.0
 20
0.0
 30
0.0
  0
ENDSEC
  0
SECTION
  2
OBJECTS
  0
DICTIONARY
  5
1
100
AcDbDictionary
  3
ACAD_GROUP
350
2
  3
ACAD_MLINESTYLE
350
3
  0
DICTIONARY
  5
2
102
{CDWK_REACTORS
330
1
102
}
100
AcDbDictionary
  0
DICTIONARY
  5
3
102
{CDWK_REACTORS
330
1
102
}
100
AcDbDictionary
  3
STANDARD
350
4
  0
MLINESTYLE
  5
4
102
{CDWK_REACTORS
330
3
102
}
100
AcDbMlineStyle
  2
STANDARD
 70
     0
  3

 62
     0
 51
90.0
 52
90.0
 71
     2
 49
0.5
 62
   256
  6
BYLAYER
 49
-0.5
 62
   256
  6
BYLAYER
  0
ENDSEC
  0
EOF
