  0
SECTION
  2
HEADER
  9
$ACADVER
  1
AC1014
  9
$DWGCODEPAGE
  3
ANSI_1252
  9
$INSBASE
 10
0.0
 20
0.0
 30
0.0
  9
$EXTMIN
 10
-7.67790263
 20
-7.6779027
  9
$EXTMAX
 10
-7.46790263
 20
-7.3809027
  9
$LIMMIN
 10
-7.67790263
 20
-7.6779027
  9
$LIMMAX
 10
-7.46790263
 20
-7.3809027
  9
$ORTHOMODE
 70
     0
  9
$REGENMODE
 70
     1
  9
$FILLMODE
 70
     1
  9
$QTEXTMODE
 70
     0
  9
$MIRRTEXT
 70
     1
  9
$DRAGMODE
 70
     2
  9
$LTSCALE
 40
0.001
  9
$OSMODE
 70
     0
  9
$ATTMODE
 70
     1
  9
$TEXTSIZE
 40
3.5
  9
$TRACEWID
 40
1.0
  9
$TEXTSTYLE
  7
STANDARD
  9
$CLAYER
  8
0
  9
$CELTYPE
  6
BYLAYER
  9
$CECOLOR
 62
   256
  9
$DIMSCALE
 40
1.0
  9
$DIMASZ
 40
2.79999995
  9
$DIMEXO
 40
5.0
  9
$DIMDLI
 40
10.0
  9
$DIMRND
 40
0.0
  9
$DIMDLE
 40
2.0
  9
$DIMEXE
 40
2.0
  9
$DIMTP
 40
0.0
  9
$DIMTM
 40
0.0
  9
$DIMTXT
 40
2.0
  9
$DIMCEN
 40
1.5
  9
$DIMTSZ
 40
0.0
  9
$DIMTOL
 70
     0
  9
$DIMLIM
 70
     0
  9
$DIMTIH
 70
     1
  9
$DIMTOH
 70
     0
  9
$DIMSE1
 70
     0
  9
$DIMSE2
 70
     0
  9
$DIMTAD
 70
     1
  9
$DIMZIN
 70
     8
  9
$DIMBLK
  1

  9
$DIMASO
 70
     1
  9
$DIMSHO
 70
     1
  9
$DIMPOST
  1

  9
$DIMAPOST
  1

  9
$DIMALT
 70
     0
  9
$DIMALTD
 70
     2
  9
$DIMALTF
 40
25.4
  9
$DIMLFAC
 40
1.0
  9
$DIMTOFL
 70
     0
  9
$DIMTVP
 40
0.0
  9
$DIMTIX
 70
     0
  9
$DIMSOXD
 70
     0
  9
$DIMSAH
 70
     0
  9
$DIMBLK1
  1

  9
$DIMBLK2
  1

  9
$DIMSTYLE
  2
*UNNAMED
  9
$DIMCLRD
 70
     9
  9
$DIMCLRE
 70
     9
  9
$DIMCLRT
 70
     7
  9
$DIMTFAC
 40
1.0
  9
$DIMGAP
 40
0.09
  9
$DIMUNIT
 70
     2
  9
$LUNITS
 70
     2
  9
$LUPREC
 70
     6
  9
$AXISMODE
 70
     0
  9
$AXISUNIT
 10
0.0
 20
0.0
  9
$SKETCHINC
 40
0.1
  9
$FILLETRAD
 40
0.0
  9
$AUNITS
 70
     0
  9
$AUPREC
 70
     0
  9
$MENU
  1
ACAD
  9
$ELEVATION
 40
0.0
  9
$PELEVATION
 40
0.0
  9
$THICKNESS
 40
0.0
  9
$LIMCHECK
 70
     0
  9
$BLIPMODE
 70
     1
  9
$CHAMFERA
 40
0.0
  9
$CHAMFERB
 40
0.0
  9
$SKPOLY
 70
     1
  9
$TDCREATE
 40
2458761.0000000000
  9
$TDUPDATE
 40
2458761.0000000000
  9
$TDINDWG
 40
0.0
  9
$TDUSRTIMER
 40
0.0
  9
$USRTIMER
 70
     1
  9
$ANGBASE
 50
0.0
  9
$ANGDIR
 70
     0
  9
$PDMODE
 70
     0
  9
$PDSIZE
 40
0.0
  9
$PLINEWID
 40
0.0
  9
$COORDS
 70
     2
  9
$SPLFRAME
 70
     0
  9
$SPLINETYPE
 70
     6
  9
$SPLINESEGS
 70
     8
  9
$ATTDIA
 70
     1
  9
$ATTREQ
 70
     1
  9
$HANDLING
 70
     1
  9
$HANDSEED
  5
     196
  9
$SURFTAB1
 70
     6
  9
$SURFTAB2
 70
     6
  9
$SURFTYPE
 70
     6
  9
$SURFU
 70
     6
  9
$SURFV
 70
     6
  9
$UCSNAME
  2

  9
$UCSORG
 10
0.0
 20
0.0
 30
0.0
  9
$UCSXDIR
 10
1.0
 20
0.0
 30
0.0
  9
$UCSYDIR
 10
0.0
 20
1.0
 30
0.0
  9
$PUCSNAME
  2

  9
$PUCSORG
 10
0.0
 20
0.0
 30
0.0
  9
$PUCSXDIR
 10
1.0
 20
0.0
 30
0.0
  9
$PUCSYDIR
 10
0.0
 20
1.0
 30
0.0
  9
$USERI1
 70
     0
  9
$USERI2
 70
     0
  9
$USERI3
 70
     0
  9
$USERI4
 70
     0
  9
$USERI5
 70
     0
  9
$USERR1
 40
0.0
  9
$USERR2
 40
0.0
  9
$USERR3
 40
0.0
  9
$USERR4
 40
0.0
  9
$USERR5
 40
0.0
  9
$WORLDVIEW
 70
     1
  9
$SHADEDGE
 70
     3
  9
$SHADEDIF
 70
    70
  9
$TILEMODE
 70
     1
  9
$MAXACTVP
 70
    16
  9
$PINSBASE
 10
0.0
 20
0.0
 30
0.0
  9
$PLIMCHECK
 70
     0
  9
$PEXTMIN
 10
1.0000000000000E+20
 20
1.0000000000000E+20
 30
1.0000000000000E+20
  9
$PEXTMAX
 10
-1.0000000000000E+20
 20
-1.0000000000000E+20
 30
-1.0000000000000E+20
  9
$PLIMMIN
 10
0.0
 20
0.0
  9
$UNITMODE
 70
     0
  9
$VISRETAIN
 70
     0
  9
$MEASUREMENT
 70
     1
  0
ENDSEC
  0
SECTION
  2
TABLES
  0
TABLE
  2
VPORT
  5
5
100
AcDbSymbolTable
 70
     1
  0
ENDTAB
  0
TABLE
  2
STYLE
  5
6
100
AcDbSymbolTable
 70
     3
  0
STYLE
  5
7
100
AcDbSymbolTableRecord
100
AcDbTextStyleTableRecord
  2
STANDARD
 70
     0
 40
0.0
 41
1.0
 50
0.0
 71
     0
 42
3.5
  3
MONOTXT
  4

  0
STYLE
  5
8
100
AcDbSymbolTableRecord
100
AcDbTextStyleTableRecord
  2
SYMAP
 70
     0
 40
0.0
 41
1.0
 50
0.0
 71
     0
 42
3.5
  3
SYMAP
  4

  0
STYLE
  5
9
100
AcDbSymbolTableRecord
100
AcDbTextStyleTableRecord
  2
CADWORK1
 70
     0
 40
0.0
 41
1.0
 50
0.0
 71
     0
 42
3.5
  3
MONOTXT
  4

  0
STYLE
  5
A
100
AcDbSymbolTableRecord
100
AcDbTextStyleTableRecord
  2
MONOTXT
 70
     0
 40
0.0
 41
1.0
 50
0.0
 71
     0
 42
3.5
  3
MONOTXT
  4

  0
STYLE
  5
B
100
AcDbSymbolTableRecord
100
AcDbTextStyleTableRecord
  2
ARIAL
 70
     0
 40
0.0
 41
1.0
 50
0.0
 71
     0
 42
3.5
  3

  4

1001
ACAD
1000
Arial
1071
        0
  0
ENDTAB
  0
TABLE
  2
LTYPE
  5
C
100
AcDbSymbolTable
 70
    10
  0
LTYPE
  5
D
100
AcDbSymbolTableRecord
100
AcDbLinetypeTableRecord
  2
BYBLOCK
 70
    64
  3

 72
    65
 73
     0
 40
0.0
  0
LTYPE
  5
E
100
AcDbSymbolTableRecord
100
AcDbLinetypeTableRecord
  2
BYLAYER
 70
    64
  3

 72
    65
 73
     0
 40
0.0
  0
LTYPE
  5
F
100
AcDbSymbolTableRecord
100
AcDbLinetypeTableRecord
  2
CONTINUOUS
 70
    64
  3
Solid line
 72
    65
 73
     0
 40
0.0
  0
LTYPE
  5
10
100
AcDbSymbolTableRecord
100
AcDbLinetypeTableRecord
  2
CADWORK_13
 70
    64
  3
13 =======================================
 72
    65
 73
     2
 40
4.0
 49
2.0
 74
     0
 49
-2.0
 74
     0
  0
LTYPE
  5
11
100
AcDbSymbolTableRecord
100
AcDbLinetypeTableRecord
  2
DAL
 70
    64
  3
Solid line (for MAPS)
 72
    65
 73
     0
 40
0.0
  0
LTYPE
  5
12
100
AcDbSymbolTableRecord
100
AcDbLinetypeTableRecord
  2
MUR
 70
    64
  3
Solid line (for MAPS)
 72
    65
 73
     0
 40
0.0
  0
LTYPE
  5
13
100
AcDbSymbolTableRecord
100
AcDbLinetypeTableRecord
  2
SOM
 70
    64
  3
Solid line (for MAPS)
 72
    65
 73
     0
 40
0.0
  0
LTYPE
  5
14
100
AcDbSymbolTableRecord
100
AcDbLinetypeTableRecord
  2
COL
 70
    64
  3
Solid line (for MAPS)
 72
    65
 73
     0
 40
0.0
  0
LTYPE
  5
15
100
AcDbSymbolTableRecord
100
AcDbLinetypeTableRecord
  2
LGN
 70
    64
  3
Solid line (for MAPS)
 72
    65
 73
     0
 40
0.0
  0
LTYPE
  5
16
100
AcDbSymbolTableRecord
100
AcDbLinetypeTableRecord
  2
PNT
 70
    64
  3
Solid line (for MAPS)
 72
    65
 73
     0
 40
0.0
  0
ENDTAB
  0
TABLE
  2
LAYER
  5
17
100
AcDbSymbolTable
 70
     1
  0
LAYER
  5
18
100
AcDbSymbolTableRecord
100
AcDbLayerTableRecord
  2
0
 70
     0
 62
     1
  6
CONTINUOUS
370
    -3
  0
LAYER
  5
19
100
AcDbSymbolTableRecord
100
AcDbLayerTableRecord
  2
LAYER_1
 70
     0
 62
     7
  6
CONTINUOUS
370
    -3
  0
ENDTAB
  0
TABLE
  2
VIEW
  5
1A
100
AcDbSymbolTable
 70
     0
  0
ENDTAB
  0
TABLE
  2
UCS
  5
1B
100
AcDbSymbolTable
 70
     0
  0
ENDTAB
  0
TABLE
  2
APPID
  5
1C
100
AcDbSymbolTable
 70
     1
  0
APPID
  5
1D
100
AcDbSymbolTableRecord
100
AcDbRegAppTableRecord
  2
ACAD
 70
     0
  0
ENDTAB
  0
TABLE
  2
DIMSTYLE
  5
1E
100
AcDbSymbolTable
 70
     0
  0
ENDTAB
  0
TABLE
  2
BLOCK_RECORD
  5
1F
100
AcDbSymbolTable
 70
     0
  0
BLOCK_RECORD
  5
20
100
AcDbSymbolTableRecord
100
AcDbBlockTableRecord
  2
*MODEL_SPACE
  0
BLOCK_RECORD
  5
21
100
AcDbSymbolTableRecord
100
AcDbBlockTableRecord
  2
*PAPER_SPACE
  0
BLOCK_RECORD
  5
22
100
AcDbSymbolTableRecord
100
AcDbBlockTableRecord
  2
CDWK_EXTR_0
  0
BLOCK_RECORD
  5
23
100
AcDbSymbolTableRecord
100
AcDbBlockTableRecord
  2
CDWK_EXTR_1D
  0
BLOCK_RECORD
  5
24
100
AcDbSymbolTableRecord
100
AcDbBlockTableRecord
  2
CDWK_EXTR_1G
  0
BLOCK_RECORD
  5
25
100
AcDbSymbolTableRecord
100
AcDbBlockTableRecord
  2
CDWK_EXTR_2
  0
BLOCK_RECORD
  5
26
100
AcDbSymbolTableRecord
100
AcDbBlockTableRecord
  2
CDWK_EXTR_3
  0
BLOCK_RECORD
  5
27
100
AcDbSymbolTableRecord
100
AcDbBlockTableRecord
  2
CDWK_EXTR_4
  0
BLOCK_RECORD
  5
28
100
AcDbSymbolTableRecord
100
AcDbBlockTableRecord
  2
CDWK_PTTYP0
  0
ENDTAB
  0
ENDSEC
  0
SECTION
  2
BLOCKS
  0
BLOCK
  5
29
100
AcDbEntity
  8
0
100
AcDbBlockBegin
  2
*MODEL_SPACE
 70
     0
 10
0.0
 20
0.0
 30
0.0
  3
*MODEL_SPACE
  1

  0
ENDBLK
  5
2A
100
AcDbEntity
100
AcDbBlockEnd
  0
BLOCK
  5
2B
100
AcDbEntity
  8
0
100
AcDbBlockBegin
  2
*PAPER_SPACE
 70
     0
 10
0.0
 20
0.0
 30
0.0
  3
*PAPER_SPACE
  1

  0
ENDBLK
  5
2C
100
AcDbEntity
100
AcDbBlockEnd
  0
BLOCK
  5
2D
100
AcDbEntity
  8
0
100
AcDbBlockBegin
  2
CDWK_EXTR_0
 70
     0
 10
0.0
 20
0.0
 30
0.0
  3
CDWK_EXTR_0
  1

  4
Cadwork line-extremity
  0
LINE
  5
2E
100
AcDbEntity
  8
0
 62
     0
370
    -2
100
AcDbLine
 10
0.0
 20
0.0
 30
0.0
 11
2.0
 21
0.5
 31
0.0
  0
LINE
  5
2F
100
AcDbEntity
  8
0
 62
     0
370
    -2
100
AcDbLine
 10
0.0
 20
0.0
 30
0.0
 11
2.0
 21
-0.5
 31
0.0
  0
LINE
  5
30
100
AcDbEntity
  8
0
 62
     0
370
    -2
100
AcDbLine
 10
2.0
 20
0.5
 30
0.0
 11
2.0
 21
-0.5
 31
0.0
  0
ENDBLK
  5
31
100
AcDbEntity
100
AcDbBlockEnd
  0
BLOCK
  5
32
100
AcDbEntity
  8
0
100
AcDbBlockBegin
  2
CDWK_EXTR_1D
 70
     0
 10
0.0
 20
0.0
 30
0.0
  3
CDWK_EXTR_1D
  1

  4
Cadwork line-extremity
  0
LINE
  5
33
100
AcDbEntity
  8
0
 62
     0
370
    -2
100
AcDbLine
 10
0.0
 20
0.0
 30
0.0
 11
0.0
 21
1.0
 31
0.0
  0
LINE
  5
34
100
AcDbEntity
  8
0
 62
     0
370
    -2
100
AcDbLine
 10
0.0
 20
1.0
 30
0.0
 11
0.5
 21
1.5
 31
0.0
  0
LINE
  5
35
100
AcDbEntity
  8
0
 62
     0
370
    -2
100
AcDbLine
 10
0.5
 20
1.5
 30
0.0
 11
1.5
 21
1.5
 31
0.0
  0
ENDBLK
  5
36
100
AcDbEntity
100
AcDbBlockEnd
  0
BLOCK
  5
37
100
AcDbEntity
  8
0
100
AcDbBlockBegin
  2
CDWK_EXTR_1G
 70
     0
 10
0.0
 20
0.0
 30
0.0
  3
CDWK_EXTR_1G
  1

  4
Cadwork line-extremity
  0
LINE
  5
38
100
AcDbEntity
  8
0
 62
     0
370
    -2
100
AcDbLine
 10
0.0
 20
0.0
 30
0.0
 11
0.0
 21
-1.0
 31
0.0
  0
LINE
  5
39
100
AcDbEntity
  8
0
 62
     0
370
    -2
100
AcDbLine
 10
0.0
 20
-1.0
 30
0.0
 11
0.5
 21
-1.5
 31
0.0
  0
LINE
  5
3A
100
AcDbEntity
  8
0
 62
     0
370
    -2
100
AcDbLine
 10
0.5
 20
-1.5
 30
0.0
 11
1.5
 21
-1.5
 31
0.0
  0
ENDBLK
  5
3B
100
AcDbEntity
100
AcDbBlockEnd
  0
BLOCK
  5
3C
100
AcDbEntity
  8
0
100
AcDbBlockBegin
  2
CDWK_EXTR_2
 70
     0
 10
0.0
 20
0.0
 30
0.0
  3
CDWK_EXTR_2
  1

  4
Cadwork line-extremity
  0
SOLID
  5
3D
100
AcDbEntity
  8
0
 62
     0
100
AcDbTrace
 10
0.0
 20
0.0
 11
2.0
 21
0.5
 12
2.0
 22
-0.5
 13
2.0
 23
-0.5
  0
ENDBLK
  5
3E
100
AcDbEntity
100
AcDbBlockEnd
  0
BLOCK
  5
3F
100
AcDbEntity
  8
0
100
AcDbBlockBegin
  2
CDWK_EXTR_3
 70
     0
 10
0.0
 20
0.0
 30
0.0
  3
CDWK_EXTR_3
  1

  4
Cadwork line-extremity
  0
SOLID
  5
40
100
AcDbEntity
  8
0
 62
     0
100
AcDbTrace
 10
0.0
 20
0.0
 11
2.0
 21
0.5
 12
2.0
 22
-0.5
 13
2.0
 23
-0.5
  0
LINE
  5
41
100
AcDbEntity
  8
0
 62
     0
370
    -2
100
AcDbLine
 10
0.0
 20
1.0
 30
0.0
 11
0.0
 21
-1.0
 31
0.0
  0
ENDBLK
  5
42
100
AcDbEntity
100
AcDbBlockEnd
  0
BLOCK
  5
43
100
AcDbEntity
  8
0
100
AcDbBlockBegin
  2
CDWK_EXTR_4
 70
     0
 10
0.0
 20
0.0
 30
0.0
  3
CDWK_EXTR_4
  1

  4
Cadwork line-extremity
  0
HATCH
  5
44
100
AcDbEntity
  8
0
 62
     0
370
    -2
100
AcDbHatch
 10
0.0
 20
0.0
 30
0.0
210
0.0
220
0.0
230
1.0
  2
SOLID
 70
     1
 71
     0
 91
        1
 92
        1
 93
        1
 72
     2
 10
0.0
 20
0.0
 40
0.5
 50
0.0
 51
360.0
 73
     1
 97
        0
 75
     0
 76
     1
 98
        1
 10
0.0
 20
0.0
  0
ENDBLK
  5
45
100
AcDbEntity
100
AcDbBlockEnd
  0
BLOCK
  5
46
100
AcDbEntity
  8
0
100
AcDbBlockBegin
  2
CDWK_PTTYP0
 70
     0
 10
0.0
 20
0.0
 30
0.0
  3
CDWK_PTTYP0
  1

  4
Cadwork point
  0
POINT
  5
47
100
AcDbEntity
  8
0
 62
     0
100
AcDbPoint
 10
0.0
 20
0.0
 30
0.0
  0
ENDBLK
  5
48
100
AcDbEntity
100
AcDbBlockEnd
  0
ENDSEC
  0
SECTION
  2
ENTITIES
  0
LWPOLYLINE
  5
49
100
AcDbEntity
  8
LAYER_1
 62
     1
  6
CONTINUOUS
370
    -3
100
AcDbPolyline
 90
        5
 70
     0
 43
0.0
 10
-7.66210263
 20
-7.6486018
 10
-7.48810263
 20
-7.6486018
 10
-7.48810263
 20
-7.4344027
 10
-7.66210263
 20
-7.4344027
 10
-7.66210263
 20
-7.6486018
  0
LINE
  5
4A
100
AcDbEntity
  8
LAYER_1
 62
     1
  6
CONTINUOUS
370
    -3
100
AcDbLine
 10
-7.66210263
 20
-7.6436018
 30
0.0
 11
-7.48810263
 21
-7.6436018
 31
0.0
  0
LINE
  5
4B
100
AcDbEntity
  8
LAYER_1
 62
     1
  6
CONTINUOUS
370
    -3
100
AcDbLine
 10
-7.66210263
 20
-7.4404027
 30
0.0
 11
-7.48810263
 21
-7.4404027
 31
0.0
  0
LINE
  5
4C
100
AcDbEntity
  8
LAYER_1
 62
     1
  6
CONTINUOUS
370
    -3
100
AcDbLine
 10
-7.66210263
 20
-7.4514027
 30
0.0
 11
-7.48810263
 21
-7.4514027
 31
0.0
  0
LINE
  5
4D
100
AcDbEntity
  8
LAYER_1
 62
     1
  6
CONTINUOUS
370
    -3
100
AcDbLine
 10
-7.66210263
 20
-7.4724027
 30
0.0
 11
-7.48810263
 21
-7.4724027
 31
0.0
  0
LINE
  5
4E
100
AcDbEntity
  8
LAYER_1
 62
     1
  6
CONTINUOUS
370
    -3
100
AcDbLine
 10
-7.66210263
 20
-7.4934027
 30
0.0
 11
-7.48810263
 21
-7.4934027
 31
0.0
  0
LINE
  5
4F
100
AcDbEntity
  8
LAYER_1
 62
     1
  6
CONTINUOUS
370
    -3
100
AcDbLine
 10
-7.66210263
 20
-7.4984027
 30
0.0
 11
-7.48810263
 21
-7.4984027
 31
0.0
  0
LINE
  5
50
100
AcDbEntity
  8
LAYER_1
 62
     1
  6
CONTINUOUS
370
    -3
100
AcDbLine
 10
-7.57510263
 20
-7.4934027
 30
0.0
 11
-7.57510263
 21
-7.4514027
 31
0.0
  0
LWPOLYLINE
  5
51
100
AcDbEntity
  8
LAYER_1
 62
     7
  6
CONTINUOUS
370
    -3
100
AcDbPolyline
 90
        6
 70
     0
 43
0.0
 10
-7.66210263
 20
-7.4934027
 10
-7.48810263
 20
-7.4934027
 10
-7.48810263
 20
-7.6486018
 10
-7.66210263
 20
-7.6486018
 10
-7.66210263
 20
-7.4934027
 10
-7.48810263
 20
-7.4934027
  0
LINE
  5
52
100
AcDbEntity
  8
LAYER_1
 62
     1
  6
CONTINUOUS
370
    -3
100
AcDbLine
 10
-7.66210263
 20
-7.4099027
 30
0.0
 11
-7.55460263
 21
-7.4099027
 31
0.0
  0
LINE
  5
53
100
AcDbEntity
  8
LAYER_1
 62
     1
  6
CONTINUOUS
370
    -3
100
AcDbLine
 10
-7.55460263
 20
-7.4099027
 30
0.0
 11
-7.54610263
 21
-7.3969721
 31
0.0
  0
LWPOLYLINE
  5
54
100
AcDbEntity
  8
LAYER_1
 62
     1
  6
CONTINUOUS
370
    -3
100
AcDbPolyline
 90
        5
 70
     0
 43
0.0
 10
-7.5809206
 20
-7.64512589
 10
-7.5789206
 20
-7.64512589
 10
-7.5789206
 20
-7.64712589
 10
-7.5809206
 20
-7.64712589
 10
-7.5809206
 20
-7.64512589
  0
LWPOLYLINE
  5
55
100
AcDbEntity
  8
LAYER_1
 62
     1
  6
CONTINUOUS
370
    -3
100
AcDbPolyline
 90
        5
 70
     0
 43
0.0
 10
-7.5656292
 20
-7.64512589
 10
-7.5636292
 20
-7.64512589
 10
-7.5636292
 20
-7.64712589
 10
-7.5656292
 20
-7.64712589
 10
-7.5656292
 20
-7.64512589
  0
LWPOLYLINE
  5
56
100
AcDbEntity
  8
LAYER_1
 62
     1
  6
CONTINUOUS
370
    -3
100
AcDbPolyline
 90
        5
 70
     0
 43
0.0
 10
-7.55446372
 20
-7.64512589
 10
-7.55246372
 20
-7.64512589
 10
-7.55246372
 20
-7.64712589
 10
-7.55446372
 20
-7.64712589
 10
-7.55446372
 20
-7.64512589
  0
LWPOLYLINE
  5
57
100
AcDbEntity
  8
LAYER_1
 62
     1
  6
CONTINUOUS
370
    -3
100
AcDbPolyline
 90
        5
 70
     0
 43
0.0
 10
-7.54301359
 20
-7.64512589
 10
-7.54101359
 20
-7.64512589
 10
-7.54101359
 20
-7.64712589
 10
-7.54301359
 20
-7.64712589
 10
-7.54301359
 20
-7.64512589
  0
LINE
  5
58
100
AcDbEntity
  8
LAYER_1
 62
     1
  6
CONTINUOUS
370
    -3
100
AcDbLine
 10
-7.66210263
 20
-7.6436018
 30
0.0
 11
-7.48810263
 21
-7.6436018
 31
0.0
  0
LINE
  5
59
100
AcDbEntity
  8
LAYER_1
 62
     7
  6
CONTINUOUS
370
    -3
100
AcDbLine
 10
-7.66210263
 20
-7.6436018
 30
0.0
 11
-7.48810263
 21
-7.6436018
 31
0.0
  0
LINE
  5
5A
100
AcDbEntity
  8
LAYER_1
 62
     1
  6
CONTINUOUS
370
    -3
100
AcDbLine
 10
-7.66210263
 20
-7.4984027
 30
0.0
 11
-7.48810263
 21
-7.4984027
 31
0.0
  0
LINE
  5
5B
100
AcDbEntity
  8
LAYER_1
 62
     7
  6
CONTINUOUS
370
    -3
100
AcDbLine
 10
-7.66210263
 20
-7.4984027
 30
0.0
 11
-7.48810263
 21
-7.4984027
 31
0.0
  0
LINE
  5
5C
100
AcDbEntity
  8
LAYER_1
 62
     1
  6
CONTINUOUS
370
    -3
100
AcDbLine
 10
-7.66210263
 20
-7.5034024
 30
0.0
 11
-7.48810263
 21
-7.5034024
 31
0.0
  0
LINE
  5
5D
100
AcDbEntity
  8
LAYER_1
 62
     1
  6
CONTINUOUS
370
    -3
100
AcDbLine
 10
-7.54550263
 20
-7.4934027
 30
0.0
 11
-7.54550263
 21
-7.4984027
 31
0.0
  0
LWPOLYLINE
  5
5E
102
{ACAD_REACTORS
330
5F
102
}
100
AcDbEntity
  8
LAYER_1
 62
     1
  6
CONTINUOUS
370
    -3
100
AcDbPolyline
 90
        4
 70
     1
 43
0.0
 10
-7.66210263
 20
-7.4984027
 10
-7.48810263
 20
-7.4984027
 10
-7.48810263
 20
-7.5034024
 10
-7.66210263
 20
-7.5034024
  0
HATCH
  5
5F
100
AcDbEntity
  8
LAYER_1
 62
   253
  6
CONTINUOUS
100
AcDbHatch
 10
0.0
 20
0.0
 30
0.0
210
0.0
220
0.0
230
1.0
  2
SOLID
 70
     1
 71
     1
 91
        1
 92
        7
 72
     0
 73
     1
 93
        4
 10
-7.66210263
 20
-7.4984027
 10
-7.48810263
 20
-7.4984027
 10
-7.48810263
 20
-7.5034024
 10
-7.66210263
 20
-7.5034024
 97
        1
330
5E
 75
     0
 76
     2
 47
0.775229
 98
        1
 10
0.0
 20
0.0
  0
LINE
  5
60
100
AcDbEntity
  8
LAYER_1
 62
     1
  6
CONTINUOUS
370
    -3
100
AcDbLine
 10
-7.51110263
 20
-7.4934027
 30
0.0
 11
-7.51110263
 21
-7.4984027
 31
0.0
  0
LINE
  5
61
100
AcDbEntity
  8
LAYER_1
 62
     1
  6
CONTINUOUS
370
    -3
100
AcDbLine
 10
-7.54550263
 20
-7.5368024
 30
0.0
 11
-7.54550263
 21
-7.4984027
 31
0.0
  0
LINE
  5
62
100
AcDbEntity
  8
LAYER_1
 62
     1
  6
CONTINUOUS
370
    -3
100
AcDbLine
 10
-7.51110263
 20
-7.5368024
 30
0.0
 11
-7.51110263
 21
-7.4984027
 31
0.0
  0
LINE
  5
63
100
AcDbEntity
  8
LAYER_1
 62
     1
  6
CONTINUOUS
370
    -3
100
AcDbLine
 10
-7.64210263
 20
-7.5368024
 30
0.0
 11
-7.64210263
 21
-7.4984027
 31
0.0
  0
LINE
  5
64
100
AcDbEntity
  8
LAYER_1
 62
     1
  6
CONTINUOUS
370
    -3
100
AcDbLine
 10
-7.62830263
 20
-7.5368024
 30
0.0
 11
-7.62830263
 21
-7.4984027
 31
0.0
  0
LINE
  5
65
100
AcDbEntity
  8
LAYER_1
 62
     1
  6
CONTINUOUS
370
    -3
100
AcDbLine
 10
-7.61450263
 20
-7.5368024
 30
0.0
 11
-7.61450263
 21
-7.4984027
 31
0.0
  0
LINE
  5
66
100
AcDbEntity
  8
LAYER_1
 62
     1
  6
CONTINUOUS
370
    -3
100
AcDbLine
 10
-7.60070263
 20
-7.5368024
 30
0.0
 11
-7.60070263
 21
-7.4984027
 31
0.0
  0
LINE
  5
67
100
AcDbEntity
  8
LAYER_1
 62
     1
  6
CONTINUOUS
370
    -3
100
AcDbLine
 10
-7.58690263
 20
-7.5368024
 30
0.0
 11
-7.58690263
 21
-7.4984027
 31
0.0
  0
LINE
  5
68
100
AcDbEntity
  8
LAYER_1
 62
     1
  6
CONTINUOUS
370
    -3
100
AcDbLine
 10
-7.57310263
 20
-7.5368024
 30
0.0
 11
-7.57310263
 21
-7.4984027
 31
0.0
  0
LINE
  5
69
100
AcDbEntity
  8
LAYER_1
 62
     1
  6
CONTINUOUS
370
    -3
100
AcDbLine
 10
-7.55930263
 20
-7.5368024
 30
0.0
 11
-7.55930263
 21
-7.4984027
 31
0.0
  0
LINE
  5
6A
100
AcDbEntity
  8
LAYER_1
 62
     1
  6
CONTINUOUS
370
    -3
100
AcDbLine
 10
-7.52750263
 20
-7.5368024
 30
0.0
 11
-7.52750263
 21
-7.4984027
 31
0.0
  0
LINE
  5
6B
100
AcDbEntity
  8
LAYER_1
 62
     1
  6
CONTINUOUS
370
    -3
100
AcDbLine
 10
-7.66210263
 20
-7.5081024
 30
0.0
 11
-7.48810263
 21
-7.5081024
 31
0.0
  0
LINE
  5
6C
100
AcDbEntity
  8
LAYER_1
 62
     1
  6
CONTINUOUS
370
    -3
100
AcDbLine
 10
-7.66210263
 20
-7.5081024
 30
0.0
 11
-7.48810263
 21
-7.5081024
 31
0.0
  0
LINE
  5
6D
100
AcDbEntity
  8
LAYER_1
 62
     1
  6
CONTINUOUS
370
    -3
100
AcDbLine
 10
-7.66210263
 20
-7.5081024
 30
0.0
 11
-7.48810263
 21
-7.5081024
 31
0.0
  0
LINE
  5
6E
100
AcDbEntity
  8
LAYER_1
 62
     1
  6
CONTINUOUS
370
    -3
100
AcDbLine
 10
-7.66210263
 20
-7.5081024
 30
0.0
 11
-7.48810263
 21
-7.5081024
 31
0.0
  0
LINE
  5
6F
100
AcDbEntity
  8
LAYER_1
 62
     1
  6
CONTINUOUS
370
    -3
100
AcDbLine
 10
-7.66210263
 20
-7.5081024
 30
0.0
 11
-7.48810263
 21
-7.5081024
 31
0.0
  0
LINE
  5
70
100
AcDbEntity
  8
LAYER_1
 62
     1
  6
CONTINUOUS
370
    -3
100
AcDbLine
 10
-7.66210263
 20
-7.5081024
 30
0.0
 11
-7.48810263
 21
-7.5081024
 31
0.0
  0
LINE
  5
71
100
AcDbEntity
  8
LAYER_1
 62
     1
  6
CONTINUOUS
370
    -3
100
AcDbLine
 10
-7.66210263
 20
-7.5128024
 30
0.0
 11
-7.48810263
 21
-7.5128024
 31
0.0
  0
LINE
  5
72
100
AcDbEntity
  8
LAYER_1
 62
     1
  6
CONTINUOUS
370
    -3
100
AcDbLine
 10
-7.66210263
 20
-7.5128024
 30
0.0
 11
-7.48810263
 21
-7.5128024
 31
0.0
  0
LINE
  5
73
100
AcDbEntity
  8
LAYER_1
 62
     1
  6
CONTINUOUS
370
    -3
100
AcDbLine
 10
-7.66210263
 20
-7.5128024
 30
0.0
 11
-7.48810263
 21
-7.5128024
 31
0.0
  0
LINE
  5
74
100
AcDbEntity
  8
LAYER_1
 62
     1
  6
CONTINUOUS
370
    -3
100
AcDbLine
 10
-7.66210263
 20
-7.5128024
 30
0.0
 11
-7.48810263
 21
-7.5128024
 31
0.0
  0
LINE
  5
75
100
AcDbEntity
  8
LAYER_1
 62
     1
  6
CONTINUOUS
370
    -3
100
AcDbLine
 10
-7.66210263
 20
-7.5128024
 30
0.0
 11
-7.48810263
 21
-7.5128024
 31
0.0
  0
LINE
  5
76
100
AcDbEntity
  8
LAYER_1
 62
     1
  6
CONTINUOUS
370
    -3
100
AcDbLine
 10
-7.66210263
 20
-7.5128024
 30
0.0
 11
-7.48810263
 21
-7.5128024
 31
0.0
  0
LINE
  5
77
100
AcDbEntity
  8
LAYER_1
 62
     1
  6
CONTINUOUS
370
    -3
100
AcDbLine
 10
-7.66210263
 20
-7.5175024
 30
0.0
 11
-7.48810263
 21
-7.5175024
 31
0.0
  0
LINE
  5
78
100
AcDbEntity
  8
LAYER_1
 62
     1
  6
CONTINUOUS
370
    -3
100
AcDbLine
 10
-7.66210263
 20
-7.5175024
 30
0.0
 11
-7.48810263
 21
-7.5175024
 31
0.0
  0
LINE
  5
79
100
AcDbEntity
  8
LAYER_1
 62
     1
  6
CONTINUOUS
370
    -3
100
AcDbLine
 10
-7.66210263
 20
-7.5175024
 30
0.0
 11
-7.48810263
 21
-7.5175024
 31
0.0
  0
LINE
  5
7A
100
AcDbEntity
  8
LAYER_1
 62
     1
  6
CONTINUOUS
370
    -3
100
AcDbLine
 10
-7.66210263
 20
-7.5175024
 30
0.0
 11
-7.48810263
 21
-7.5175024
 31
0.0
  0
LINE
  5
7B
100
AcDbEntity
  8
LAYER_1
 62
     1
  6
CONTINUOUS
370
    -3
100
AcDbLine
 10
-7.66210263
 20
-7.5175024
 30
0.0
 11
-7.48810263
 21
-7.5175024
 31
0.0
  0
LINE
  5
7C
100
AcDbEntity
  8
LAYER_1
 62
     1
  6
CONTINUOUS
370
    -3
100
AcDbLine
 10
-7.66210263
 20
-7.5175024
 30
0.0
 11
-7.48810263
 21
-7.5175024
 31
0.0
  0
LINE
  5
7D
100
AcDbEntity
  8
LAYER_1
 62
     1
  6
CONTINUOUS
370
    -3
100
AcDbLine
 10
-7.66210263
 20
-7.5222024
 30
0.0
 11
-7.48810263
 21
-7.5222024
 31
0.0
  0
LINE
  5
7E
100
AcDbEntity
  8
LAYER_1
 62
     1
  6
CONTINUOUS
370
    -3
100
AcDbLine
 10
-7.66210263
 20
-7.5222024
 30
0.0
 11
-7.48810263
 21
-7.5222024
 31
0.0
  0
LINE
  5
7F
100
AcDbEntity
  8
LAYER_1
 62
     1
  6
CONTINUOUS
370
    -3
100
AcDbLine
 10
-7.66210263
 20
-7.5222024
 30
0.0
 11
-7.48810263
 21
-7.5222024
 31
0.0
  0
LINE
  5
80
100
AcDbEntity
  8
LAYER_1
 62
     1
  6
CONTINUOUS
370
    -3
100
AcDbLine
 10
-7.66210263
 20
-7.5222024
 30
0.0
 11
-7.48810263
 21
-7.5222024
 31
0.0
  0
LINE
  5
81
100
AcDbEntity
  8
LAYER_1
 62
     1
  6
CONTINUOUS
370
    -3
100
AcDbLine
 10
-7.66210263
 20
-7.5222024
 30
0.0
 11
-7.48810263
 21
-7.5222024
 31
0.0
  0
LINE
  5
82
100
AcDbEntity
  8
LAYER_1
 62
     1
  6
CONTINUOUS
370
    -3
100
AcDbLine
 10
-7.66210263
 20
-7.5222024
 30
0.0
 11
-7.48810263
 21
-7.5222024
 31
0.0
  0
LINE
  5
83
100
AcDbEntity
  8
LAYER_1
 62
     1
  6
CONTINUOUS
370
    -3
100
AcDbLine
 10
-7.66210263
 20
-7.5269024
 30
0.0
 11
-7.48810263
 21
-7.5269024
 31
0.0
  0
LINE
  5
84
100
AcDbEntity
  8
LAYER_1
 62
     1
  6
CONTINUOUS
370
    -3
100
AcDbLine
 10
-7.66210263
 20
-7.5269024
 30
0.0
 11
-7.48810263
 21
-7.5269024
 31
0.0
  0
LINE
  5
85
100
AcDbEntity
  8
LAYER_1
 62
     1
  6
CONTINUOUS
370
    -3
100
AcDbLine
 10
-7.66210263
 20
-7.5269024
 30
0.0
 11
-7.48810263
 21
-7.5269024
 31
0.0
  0
LINE
  5
86
100
AcDbEntity
  8
LAYER_1
 62
     1
  6
CONTINUOUS
370
    -3
100
AcDbLine
 10
-7.66210263
 20
-7.5269024
 30
0.0
 11
-7.48810263
 21
-7.5269024
 31
0.0
  0
LINE
  5
87
100
AcDbEntity
  8
LAYER_1
 62
     1
  6
CONTINUOUS
370
    -3
100
AcDbLine
 10
-7.66210263
 20
-7.5269024
 30
0.0
 11
-7.48810263
 21
-7.5269024
 31
0.0
  0
LINE
  5
88
100
AcDbEntity
  8
LAYER_1
 62
     1
  6
CONTINUOUS
370
    -3
100
AcDbLine
 10
-7.66210263
 20
-7.5269024
 30
0.0
 11
-7.48810263
 21
-7.5269024
 31
0.0
  0
LINE
  5
89
100
AcDbEntity
  8
LAYER_1
 62
     1
  6
CONTINUOUS
370
    -3
100
AcDbLine
 10
-7.66210263
 20
-7.5316024
 30
0.0
 11
-7.48810263
 21
-7.5316024
 31
0.0
  0
LINE
  5
8A
100
AcDbEntity
  8
LAYER_1
 62
     1
  6
CONTINUOUS
370
    -3
100
AcDbLine
 10
-7.66210263
 20
-7.5316024
 30
0.0
 11
-7.48810263
 21
-7.5316024
 31
0.0
  0
LINE
  5
8B
100
AcDbEntity
  8
LAYER_1
 62
     1
  6
CONTINUOUS
370
    -3
100
AcDbLine
 10
-7.66210263
 20
-7.5316024
 30
0.0
 11
-7.48810263
 21
-7.5316024
 31
0.0
  0
LINE
  5
8C
100
AcDbEntity
  8
LAYER_1
 62
     1
  6
CONTINUOUS
370
    -3
100
AcDbLine
 10
-7.66210263
 20
-7.5316024
 30
0.0
 11
-7.48810263
 21
-7.5316024
 31
0.0
  0
LINE
  5
8D
100
AcDbEntity
  8
LAYER_1
 62
     1
  6
CONTINUOUS
370
    -3
100
AcDbLine
 10
-7.66210263
 20
-7.5316024
 30
0.0
 11
-7.48810263
 21
-7.5316024
 31
0.0
  0
LINE
  5
8E
100
AcDbEntity
  8
LAYER_1
 62
     1
  6
CONTINUOUS
370
    -3
100
AcDbLine
 10
-7.66210263
 20
-7.5316024
 30
0.0
 11
-7.48810263
 21
-7.5316024
 31
0.0
  0
LINE
  5
8F
100
AcDbEntity
  8
LAYER_1
 62
     1
  6
CONTINUOUS
370
    -3
100
AcDbLine
 10
-7.66210263
 20
-7.5321024
 30
0.0
 11
-7.48810263
 21
-7.5321024
 31
0.0
  0
LINE
  5
90
100
AcDbEntity
  8
LAYER_1
 62
     1
  6
CONTINUOUS
370
    -3
100
AcDbLine
 10
-7.66210263
 20
-7.5321024
 30
0.0
 11
-7.48810263
 21
-7.5321024
 31
0.0
  0
LINE
  5
91
100
AcDbEntity
  8
LAYER_1
 62
     1
  6
CONTINUOUS
370
    -3
100
AcDbLine
 10
-7.66210263
 20
-7.5321024
 30
0.0
 11
-7.48810263
 21
-7.5321024
 31
0.0
  0
LINE
  5
92
100
AcDbEntity
  8
LAYER_1
 62
     1
  6
CONTINUOUS
370
    -3
100
AcDbLine
 10
-7.66210263
 20
-7.5321024
 30
0.0
 11
-7.48810263
 21
-7.5321024
 31
0.0
  0
LINE
  5
93
100
AcDbEntity
  8
LAYER_1
 62
     1
  6
CONTINUOUS
370
    -3
100
AcDbLine
 10
-7.66210263
 20
-7.5321024
 30
0.0
 11
-7.48810263
 21
-7.5321024
 31
0.0
  0
LINE
  5
94
100
AcDbEntity
  8
LAYER_1
 62
     1
  6
CONTINUOUS
370
    -3
100
AcDbLine
 10
-7.66210263
 20
-7.5321024
 30
0.0
 11
-7.48810263
 21
-7.5321024
 31
0.0
  0
LINE
  5
95
100
AcDbEntity
  8
LAYER_1
 62
     1
  6
CONTINUOUS
370
    -3
100
AcDbLine
 10
-7.66210263
 20
-7.5368024
 30
0.0
 11
-7.48810263
 21
-7.5368024
 31
0.0
  0
LINE
  5
96
100
AcDbEntity
  8
LAYER_1
 62
     1
  6
CONTINUOUS
370
    -3
100
AcDbLine
 10
-7.66210263
 20
-7.5368024
 30
0.0
 11
-7.48810263
 21
-7.5368024
 31
0.0
  0
LINE
  5
97
100
AcDbEntity
  8
LAYER_1
 62
     1
  6
CONTINUOUS
370
    -3
100
AcDbLine
 10
-7.66210263
 20
-7.5368024
 30
0.0
 11
-7.48810263
 21
-7.5368024
 31
0.0
  0
LINE
  5
98
100
AcDbEntity
  8
LAYER_1
 62
     1
  6
CONTINUOUS
370
    -3
100
AcDbLine
 10
-7.66210263
 20
-7.5368024
 30
0.0
 11
-7.48810263
 21
-7.5368024
 31
0.0
  0
LINE
  5
99
100
AcDbEntity
  8
LAYER_1
 62
     1
  6
CONTINUOUS
370
    -3
100
AcDbLine
 10
-7.66210263
 20
-7.5368024
 30
0.0
 11
-7.48810263
 21
-7.5368024
 31
0.0
  0
LINE
  5
9A
100
AcDbEntity
  8
LAYER_1
 62
     7
  6
CONTINUOUS
370
    -3
100
AcDbLine
 10
-7.66210263
 20
-7.5368024
 30
0.0
 11
-7.48810263
 21
-7.5368024
 31
0.0
  0
LINE
  5
9B
100
AcDbEntity
  8
LAYER_1
 62
     7
  6
CONTINUOUS
370
    -3
100
AcDbLine
 10
-7.66210263
 20
-7.5373024
 30
0.0
 11
-7.48810263
 21
-7.5373024
 31
0.0
  0
LWPOLYLINE
  5
9C
102
{ACAD_REACTORS
330
9D
102
}
100
AcDbEntity
  8
LAYER_1
 62
     1
  6
CONTINUOUS
370
    -3
100
AcDbPolyline
 90
        4
 70
     1
 43
0.0
 10
-7.66210263
 20
-7.5368024
 10
-7.48810263
 20
-7.5368024
 10
-7.48810263
 20
-7.5373024
 10
-7.66210263
 20
-7.5373024
  0
HATCH
  5
9D
100
AcDbEntity
  8
LAYER_1
 62
   253
  6
CONTINUOUS
100
AcDbHatch
 10
0.0
 20
0.0
 30
0.0
210
0.0
220
0.0
230
1.0
  2
SOLID
 70
     1
 71
     1
 91
        1
 92
        7
 72
     0
 73
     1
 93
        4
 10
-7.66210263
 20
-7.5368024
 10
-7.48810263
 20
-7.5368024
 10
-7.48810263
 20
-7.5373024
 10
-7.66210263
 20
-7.5373024
 97
        1
330
9C
 75
     0
 76
     2
 47
0.775229
 98
        1
 10
0.0
 20
0.0
  0
LINE
  5
9E
100
AcDbEntity
  8
LAYER_1
 62
     1
  6
CONTINUOUS
370
    -3
100
AcDbLine
 10
-7.66210263
 20
-7.5373024
 30
0.0
 11
-7.48810263
 21
-7.5373024
 31
0.0
  0
LINE
  5
9F
100
AcDbEntity
  8
LAYER_1
 62
     1
  6
CONTINUOUS
370
    -3
100
AcDbLine
 10
-7.66210263
 20
-7.5420024
 30
0.0
 11
-7.48810263
 21
-7.5420024
 31
0.0
  0
LINE
  5
A0
100
AcDbEntity
  8
LAYER_1
 62
     1
  6
CONTINUOUS
370
    -3
100
AcDbLine
 10
-7.66210263
 20
-7.5467024
 30
0.0
 11
-7.48810263
 21
-7.5467024
 31
0.0
  0
LINE
  5
A1
100
AcDbEntity
  8
LAYER_1
 62
     1
  6
CONTINUOUS
370
    -3
100
AcDbLine
 10
-7.66210263
 20
-7.5514024
 30
0.0
 11
-7.48810263
 21
-7.5514024
 31
0.0
  0
LINE
  5
A2
100
AcDbEntity
  8
LAYER_1
 62
     1
  6
CONTINUOUS
370
    -3
100
AcDbLine
 10
-7.66210263
 20
-7.5561024
 30
0.0
 11
-7.48810263
 21
-7.5561024
 31
0.0
  0
LINE
  5
A3
100
AcDbEntity
  8
LAYER_1
 62
     1
  6
CONTINUOUS
370
    -3
100
AcDbLine
 10
-7.66210263
 20
-7.5608024
 30
0.0
 11
-7.48810263
 21
-7.5608024
 31
0.0
  0
LINE
  5
A4
100
AcDbEntity
  8
LAYER_1
 62
     1
  6
CONTINUOUS
370
    -3
100
AcDbLine
 10
-7.66210263
 20
-7.5420024
 30
0.0
 11
-7.48810263
 21
-7.5420024
 31
0.0
  0
LINE
  5
A5
100
AcDbEntity
  8
LAYER_1
 62
     1
  6
CONTINUOUS
370
    -3
100
AcDbLine
 10
-7.66210263
 20
-7.5655024
 30
0.0
 11
-7.48810263
 21
-7.5655024
 31
0.0
  0
LINE
  5
A6
100
AcDbEntity
  8
LAYER_1
 62
     1
  6
CONTINUOUS
370
    -3
100
AcDbLine
 10
-7.64210263
 20
-7.5373024
 30
0.0
 11
-7.64210263
 21
-7.5655024
 31
0.0
  0
LINE
  5
A7
100
AcDbEntity
  8
LAYER_1
 62
     1
  6
CONTINUOUS
370
    -3
100
AcDbLine
 10
-7.62830263
 20
-7.5373024
 30
0.0
 11
-7.62830263
 21
-7.5655024
 31
0.0
  0
LINE
  5
A8
100
AcDbEntity
  8
LAYER_1
 62
     1
  6
CONTINUOUS
370
    -3
100
AcDbLine
 10
-7.61450263
 20
-7.5373024
 30
0.0
 11
-7.61450263
 21
-7.5655024
 31
0.0
  0
LINE
  5
A9
100
AcDbEntity
  8
LAYER_1
 62
     1
  6
CONTINUOUS
370
    -3
100
AcDbLine
 10
-7.60070263
 20
-7.5373024
 30
0.0
 11
-7.60070263
 21
-7.5655024
 31
0.0
  0
LINE
  5
AA
100
AcDbEntity
  8
LAYER_1
 62
     1
  6
CONTINUOUS
370
    -3
100
AcDbLine
 10
-7.58690263
 20
-7.5373024
 30
0.0
 11
-7.58690263
 21
-7.5655024
 31
0.0
  0
LINE
  5
AB
100
AcDbEntity
  8
LAYER_1
 62
     1
  6
CONTINUOUS
370
    -3
100
AcDbLine
 10
-7.57310263
 20
-7.5373024
 30
0.0
 11
-7.57310263
 21
-7.5655024
 31
0.0
  0
LINE
  5
AC
100
AcDbEntity
  8
LAYER_1
 62
     1
  6
CONTINUOUS
370
    -3
100
AcDbLine
 10
-7.55930263
 20
-7.5373024
 30
0.0
 11
-7.55930263
 21
-7.5655024
 31
0.0
  0
LINE
  5
AD
100
AcDbEntity
  8
LAYER_1
 62
     1
  6
CONTINUOUS
370
    -3
100
AcDbLine
 10
-7.54550263
 20
-7.5373024
 30
0.0
 11
-7.54550263
 21
-7.5655024
 31
0.0
  0
LINE
  5
AE
100
AcDbEntity
  8
LAYER_1
 62
     1
  6
CONTINUOUS
370
    -3
100
AcDbLine
 10
-7.52750263
 20
-7.5373024
 30
0.0
 11
-7.52750263
 21
-7.5655024
 31
0.0
  0
LINE
  5
AF
100
AcDbEntity
  8
LAYER_1
 62
     1
  6
CONTINUOUS
370
    -3
100
AcDbLine
 10
-7.51110263
 20
-7.5373024
 30
0.0
 11
-7.51110263
 21
-7.5655024
 31
0.0
  0
LINE
  5
B0
100
AcDbEntity
  8
LAYER_1
 62
     7
  6
CONTINUOUS
370
    -3
100
AcDbLine
 10
-7.66210263
 20
-7.5660024
 30
0.0
 11
-7.48810263
 21
-7.5660024
 31
0.0
  0
LWPOLYLINE
  5
B1
102
{ACAD_REACTORS
330
B2
102
}
100
AcDbEntity
  8
LAYER_1
 62
     1
  6
CONTINUOUS
370
    -3
100
AcDbPolyline
 90
        4
 70
     1
 43
0.0
 10
-7.66210263
 20
-7.5655024
 10
-7.48810263
 20
-7.5655024
 10
-7.48810263
 20
-7.5660024
 10
-7.66210263
 20
-7.5660024
  0
HATCH
  5
B2
100
AcDbEntity
  8
LAYER_1
 62
   253
  6
CONTINUOUS
100
AcDbHatch
 10
0.0
 20
0.0
 30
0.0
210
0.0
220
0.0
230
1.0
  2
SOLID
 70
     1
 71
     1
 91
        1
 92
        7
 72
     0
 73
     1
 93
        4
 10
-7.66210263
 20
-7.5655024
 10
-7.48810263
 20
-7.5655024
 10
-7.48810263
 20
-7.5660024
 10
-7.66210263
 20
-7.5660024
 97
        1
330
B1
 75
     0
 76
     2
 47
0.775229
 98
        1
 10
0.0
 20
0.0
  0
LINE
  5
B3
100
AcDbEntity
  8
LAYER_1
 62
     1
  6
CONTINUOUS
370
    -3
100
AcDbLine
 10
-7.66210263
 20
-7.5660024
 30
0.0
 11
-7.48810263
 21
-7.5660024
 31
0.0
  0
LINE
  5
B4
100
AcDbEntity
  8
LAYER_1
 62
     1
  6
CONTINUOUS
370
    -3
100
AcDbLine
 10
-7.66210263
 20
-7.5707024
 30
0.0
 11
-7.48810263
 21
-7.5707024
 31
0.0
  0
LINE
  5
B5
100
AcDbEntity
  8
LAYER_1
 62
     1
  6
CONTINUOUS
370
    -3
100
AcDbLine
 10
-7.66210263
 20
-7.5754024
 30
0.0
 11
-7.48810263
 21
-7.5754024
 31
0.0
  0
LINE
  5
B6
100
AcDbEntity
  8
LAYER_1
 62
     1
  6
CONTINUOUS
370
    -3
100
AcDbLine
 10
-7.66210263
 20
-7.5801024
 30
0.0
 11
-7.48810263
 21
-7.5801024
 31
0.0
  0
LINE
  5
B7
100
AcDbEntity
  8
LAYER_1
 62
     1
  6
CONTINUOUS
370
    -3
100
AcDbLine
 10
-7.66210263
 20
-7.5848024
 30
0.0
 11
-7.48810263
 21
-7.5848024
 31
0.0
  0
LINE
  5
B8
100
AcDbEntity
  8
LAYER_1
 62
     1
  6
CONTINUOUS
370
    -3
100
AcDbLine
 10
-7.66210263
 20
-7.5895024
 30
0.0
 11
-7.48810263
 21
-7.5895024
 31
0.0
  0
LINE
  5
B9
100
AcDbEntity
  8
LAYER_1
 62
     1
  6
CONTINUOUS
370
    -3
100
AcDbLine
 10
-7.66210263
 20
-7.5707024
 30
0.0
 11
-7.48810263
 21
-7.5707024
 31
0.0
  0
LINE
  5
BA
100
AcDbEntity
  8
LAYER_1
 62
     1
  6
CONTINUOUS
370
    -3
100
AcDbLine
 10
-7.66210263
 20
-7.5942024
 30
0.0
 11
-7.48810263
 21
-7.5942024
 31
0.0
  0
LINE
  5
BB
100
AcDbEntity
  8
LAYER_1
 62
     1
  6
CONTINUOUS
370
    -3
100
AcDbLine
 10
-7.64210263
 20
-7.5660024
 30
0.0
 11
-7.64210263
 21
-7.5942024
 31
0.0
  0
LINE
  5
BC
100
AcDbEntity
  8
LAYER_1
 62
     1
  6
CONTINUOUS
370
    -3
100
AcDbLine
 10
-7.62830263
 20
-7.5660024
 30
0.0
 11
-7.62830263
 21
-7.5942024
 31
0.0
  0
LINE
  5
BD
100
AcDbEntity
  8
LAYER_1
 62
     1
  6
CONTINUOUS
370
    -3
100
AcDbLine
 10
-7.61450263
 20
-7.5660024
 30
0.0
 11
-7.61450263
 21
-7.5942024
 31
0.0
  0
LINE
  5
BE
100
AcDbEntity
  8
LAYER_1
 62
     1
  6
CONTINUOUS
370
    -3
100
AcDbLine
 10
-7.60070263
 20
-7.5660024
 30
0.0
 11
-7.60070263
 21
-7.5942024
 31
0.0
  0
LINE
  5
BF
100
AcDbEntity
  8
LAYER_1
 62
     1
  6
CONTINUOUS
370
    -3
100
AcDbLine
 10
-7.58690263
 20
-7.5660024
 30
0.0
 11
-7.58690263
 21
-7.5942024
 31
0.0
  0
LINE
  5
C0
100
AcDbEntity
  8
LAYER_1
 62
     1
  6
CONTINUOUS
370
    -3
100
AcDbLine
 10
-7.57310263
 20
-7.5660024
 30
0.0
 11
-7.57310263
 21
-7.5942024
 31
0.0
  0
LINE
  5
C1
100
AcDbEntity
  8
LAYER_1
 62
     1
  6
CONTINUOUS
370
    -3
100
AcDbLine
 10
-7.55930263
 20
-7.5660024
 30
0.0
 11
-7.55930263
 21
-7.5942024
 31
0.0
  0
LINE
  5
C2
100
AcDbEntity
  8
LAYER_1
 62
     1
  6
CONTINUOUS
370
    -3
100
AcDbLine
 10
-7.54550263
 20
-7.5660024
 30
0.0
 11
-7.54550263
 21
-7.5942024
 31
0.0
  0
LINE
  5
C3
100
AcDbEntity
  8
LAYER_1
 62
     1
  6
CONTINUOUS
370
    -3
100
AcDbLine
 10
-7.52750263
 20
-7.5660024
 30
0.0
 11
-7.52750263
 21
-7.5942024
 31
0.0
  0
LINE
  5
C4
100
AcDbEntity
  8
LAYER_1
 62
     1
  6
CONTINUOUS
370
    -3
100
AcDbLine
 10
-7.51110263
 20
-7.5660024
 30
0.0
 11
-7.51110263
 21
-7.5942024
 31
0.0
  0
LWPOLYLINE
  5
C5
102
{ACAD_REACTORS
330
C6
102
}
100
AcDbEntity
  8
LAYER_1
 62
     1
  6
CONTINUOUS
370
    -3
100
AcDbPolyline
 90
        4
 70
     1
 43
0.0
 10
-7.66210263
 20
-7.5942024
 10
-7.48810263
 20
-7.5942024
 10
-7.48810263
 20
-7.5947024
 10
-7.66210263
 20
-7.5947024
  0
HATCH
  5
C6
100
AcDbEntity
  8
LAYER_1
 62
   253
  6
CONTINUOUS
100
AcDbHatch
 10
0.0
 20
0.0
 30
0.0
210
0.0
220
0.0
230
1.0
  2
SOLID
 70
     1
 71
     1
 91
        1
 92
        7
 72
     0
 73
     1
 93
        4
 10
-7.66210263
 20
-7.5942024
 10
-7.48810263
 20
-7.5942024
 10
-7.48810263
 20
-7.5947024
 10
-7.66210263
 20
-7.5947024
 97
        1
330
C5
 75
     0
 76
     2
 47
0.775229
 98
        1
 10
0.0
 20
0.0
  0
LINE
  5
C7
100
AcDbEntity
  8
LAYER_1
 62
     1
  6
CONTINUOUS
370
    -3
100
AcDbLine
 10
-7.66210263
 20
-7.5994024
 30
0.0
 11
-7.48810263
 21
-7.5994024
 31
0.0
  0
LWPOLYLINE
  5
C8
102
{ACAD_REACTORS
330
C9
102
}
100
AcDbEntity
  8
LAYER_1
 62
     1
  6
CONTINUOUS
370
    -3
100
AcDbPolyline
 90
        4
 70
     1
 43
0.0
 10
-7.66210263
 20
-7.5994024
 10
-7.48810263
 20
-7.5994024
 10
-7.48810263
 20
-7.5999024
 10
-7.66210263
 20
-7.5999024
  0
HATCH
  5
C9
100
AcDbEntity
  8
LAYER_1
 62
   253
  6
CONTINUOUS
100
AcDbHatch
 10
0.0
 20
0.0
 30
0.0
210
0.0
220
0.0
230
1.0
  2
SOLID
 70
     1
 71
     1
 91
        1
 92
        7
 72
     0
 73
     1
 93
        4
 10
-7.66210263
 20
-7.5994024
 10
-7.48810263
 20
-7.5994024
 10
-7.48810263
 20
-7.5999024
 10
-7.66210263
 20
-7.5999024
 97
        1
330
C8
 75
     0
 76
     2
 47
0.775229
 98
        1
 10
0.0
 20
0.0
  0
LINE
  5
CA
100
AcDbEntity
  8
LAYER_1
 62
     1
  6
CONTINUOUS
370
    -3
100
AcDbLine
 10
-7.66210263
 20
-7.6046024
 30
0.0
 11
-7.48810263
 21
-7.6046024
 31
0.0
  0
LINE
  5
CB
100
AcDbEntity
  8
LAYER_1
 62
     1
  6
CONTINUOUS
370
    -3
100
AcDbLine
 10
-7.64210263
 20
-7.5947024
 30
0.0
 11
-7.64210263
 21
-7.5994024
 31
0.0
  0
LINE
  5
CC
100
AcDbEntity
  8
LAYER_1
 62
     1
  6
CONTINUOUS
370
    -3
100
AcDbLine
 10
-7.64210263
 20
-7.5999024
 30
0.0
 11
-7.64210263
 21
-7.6046024
 31
0.0
  0
LINE
  5
CD
100
AcDbEntity
  8
LAYER_1
 62
     1
  6
CONTINUOUS
370
    -3
100
AcDbLine
 10
-7.62830263
 20
-7.5947024
 30
0.0
 11
-7.62830263
 21
-7.5994024
 31
0.0
  0
LINE
  5
CE
100
AcDbEntity
  8
LAYER_1
 62
     1
  6
CONTINUOUS
370
    -3
100
AcDbLine
 10
-7.62830263
 20
-7.5999024
 30
0.0
 11
-7.62830263
 21
-7.6046024
 31
0.0
  0
LINE
  5
CF
100
AcDbEntity
  8
LAYER_1
 62
     1
  6
CONTINUOUS
370
    -3
100
AcDbLine
 10
-7.61450263
 20
-7.5947024
 30
0.0
 11
-7.61450263
 21
-7.5994024
 31
0.0
  0
LINE
  5
D0
100
AcDbEntity
  8
LAYER_1
 62
     1
  6
CONTINUOUS
370
    -3
100
AcDbLine
 10
-7.61450263
 20
-7.5999024
 30
0.0
 11
-7.61450263
 21
-7.6046024
 31
0.0
  0
LINE
  5
D1
100
AcDbEntity
  8
LAYER_1
 62
     1
  6
CONTINUOUS
370
    -3
100
AcDbLine
 10
-7.60070263
 20
-7.5947024
 30
0.0
 11
-7.60070263
 21
-7.5994024
 31
0.0
  0
LINE
  5
D2
100
AcDbEntity
  8
LAYER_1
 62
     1
  6
CONTINUOUS
370
    -3
100
AcDbLine
 10
-7.60070263
 20
-7.5999024
 30
0.0
 11
-7.60070263
 21
-7.6046024
 31
0.0
  0
LINE
  5
D3
100
AcDbEntity
  8
LAYER_1
 62
     1
  6
CONTINUOUS
370
    -3
100
AcDbLine
 10
-7.58690263
 20
-7.5947024
 30
0.0
 11
-7.58690263
 21
-7.5994024
 31
0.0
  0
LINE
  5
D4
100
AcDbEntity
  8
LAYER_1
 62
     1
  6
CONTINUOUS
370
    -3
100
AcDbLine
 10
-7.58690263
 20
-7.5999024
 30
0.0
 11
-7.58690263
 21
-7.6046024
 31
0.0
  0
LINE
  5
D5
100
AcDbEntity
  8
LAYER_1
 62
     1
  6
CONTINUOUS
370
    -3
100
AcDbLine
 10
-7.57310263
 20
-7.5947024
 30
0.0
 11
-7.57310263
 21
-7.5994024
 31
0.0
  0
LINE
  5
D6
100
AcDbEntity
  8
LAYER_1
 62
     1
  6
CONTINUOUS
370
    -3
100
AcDbLine
 10
-7.57310263
 20
-7.5999024
 30
0.0
 11
-7.57310263
 21
-7.6046024
 31
0.0
  0
LINE
  5
D7
100
AcDbEntity
  8
LAYER_1
 62
     1
  6
CONTINUOUS
370
    -3
100
AcDbLine
 10
-7.55930263
 20
-7.5947024
 30
0.0
 11
-7.55930263
 21
-7.5994024
 31
0.0
  0
LINE
  5
D8
100
AcDbEntity
  8
LAYER_1
 62
     1
  6
CONTINUOUS
370
    -3
100
AcDbLine
 10
-7.55930263
 20
-7.5999024
 30
0.0
 11
-7.55930263
 21
-7.6046024
 31
0.0
  0
LINE
  5
D9
100
AcDbEntity
  8
LAYER_1
 62
     1
  6
CONTINUOUS
370
    -3
100
AcDbLine
 10
-7.54550263
 20
-7.5947024
 30
0.0
 11
-7.54550263
 21
-7.5994024
 31
0.0
  0
LINE
  5
DA
100
AcDbEntity
  8
LAYER_1
 62
     1
  6
CONTINUOUS
370
    -3
100
AcDbLine
 10
-7.54550263
 20
-7.5999024
 30
0.0
 11
-7.54550263
 21
-7.6046024
 31
0.0
  0
LINE
  5
DB
100
AcDbEntity
  8
LAYER_1
 62
     1
  6
CONTINUOUS
370
    -3
100
AcDbLine
 10
-7.52750263
 20
-7.5947024
 30
0.0
 11
-7.52750263
 21
-7.5994024
 31
0.0
  0
LINE
  5
DC
100
AcDbEntity
  8
LAYER_1
 62
     1
  6
CONTINUOUS
370
    -3
100
AcDbLine
 10
-7.52750263
 20
-7.5999024
 30
0.0
 11
-7.52750263
 21
-7.6046024
 31
0.0
  0
LINE
  5
DD
100
AcDbEntity
  8
LAYER_1
 62
     1
  6
CONTINUOUS
370
    -3
100
AcDbLine
 10
-7.51110263
 20
-7.5947024
 30
0.0
 11
-7.51110263
 21
-7.5994024
 31
0.0
  0
LINE
  5
DE
100
AcDbEntity
  8
LAYER_1
 62
     1
  6
CONTINUOUS
370
    -3
100
AcDbLine
 10
-7.51110263
 20
-7.5999024
 30
0.0
 11
-7.51110263
 21
-7.6046024
 31
0.0
  0
LINE
  5
DF
100
AcDbEntity
  8
LAYER_1
 62
     1
  6
CONTINUOUS
370
    -3
100
AcDbLine
 10
-7.66210263
 20
-7.6096021
 30
0.0
 11
-7.48810263
 21
-7.6096021
 31
0.0
  0
LWPOLYLINE
  5
E0
102
{ACAD_REACTORS
330
E1
102
}
100
AcDbEntity
  8
LAYER_1
 62
     1
  6
CONTINUOUS
370
    -3
100
AcDbPolyline
 90
        4
 70
     1
 43
0.0
 10
-7.66210263
 20
-7.6046024
 10
-7.48810263
 20
-7.6046024
 10
-7.48810263
 20
-7.6096021
 10
-7.66210263
 20
-7.6096021
  0
HATCH
  5
E1
100
AcDbEntity
  8
LAYER_1
 62
   253
  6
CONTINUOUS
100
AcDbHatch
 10
0.0
 20
0.0
 30
0.0
210
0.0
220
0.0
230
1.0
  2
SOLID
 70
     1
 71
     1
 91
        1
 92
        7
 72
     0
 73
     1
 93
        4
 10
-7.66210263
 20
-7.6046024
 10
-7.48810263
 20
-7.6046024
 10
-7.48810263
 20
-7.6096021
 10
-7.66210263
 20
-7.6096021
 97
        1
330
E0
 75
     0
 76
     2
 47
0.775229
 98
        1
 10
0.0
 20
0.0
  0
LINE
  5
E2
100
AcDbEntity
  8
LAYER_1
 62
     1
  6
CONTINUOUS
370
    -3
100
AcDbLine
 10
-7.66210263
 20
-7.6143021
 30
0.0
 11
-7.48810263
 21
-7.6143021
 31
0.0
  0
LINE
  5
E3
100
AcDbEntity
  8
LAYER_1
 62
     1
  6
CONTINUOUS
370
    -3
100
AcDbLine
 10
-7.66210263
 20
-7.6143021
 30
0.0
 11
-7.48810263
 21
-7.6143021
 31
0.0
  0
LINE
  5
E4
100
AcDbEntity
  8
LAYER_1
 62
     1
  6
CONTINUOUS
370
    -3
100
AcDbLine
 10
-7.66210263
 20
-7.6143021
 30
0.0
 11
-7.48810263
 21
-7.6143021
 31
0.0
  0
LINE
  5
E5
100
AcDbEntity
  8
LAYER_1
 62
     1
  6
CONTINUOUS
370
    -3
100
AcDbLine
 10
-7.66210263
 20
-7.6143021
 30
0.0
 11
-7.48810263
 21
-7.6143021
 31
0.0
  0
LINE
  5
E6
100
AcDbEntity
  8
LAYER_1
 62
     1
  6
CONTINUOUS
370
    -3
100
AcDbLine
 10
-7.66210263
 20
-7.6143021
 30
0.0
 11
-7.48810263
 21
-7.6143021
 31
0.0
  0
LINE
  5
E7
100
AcDbEntity
  8
LAYER_1
 62
     1
  6
CONTINUOUS
370
    -3
100
AcDbLine
 10
-7.66210263
 20
-7.6143021
 30
0.0
 11
-7.48810263
 21
-7.6143021
 31
0.0
  0
LINE
  5
E8
100
AcDbEntity
  8
LAYER_1
 62
     1
  6
CONTINUOUS
370
    -3
100
AcDbLine
 10
-7.66210263
 20
-7.6143021
 30
0.0
 11
-7.48810263
 21
-7.6143021
 31
0.0
  0
LINE
  5
E9
100
AcDbEntity
  8
LAYER_1
 62
     1
  6
CONTINUOUS
370
    -3
100
AcDbLine
 10
-7.66210263
 20
-7.6193018
 30
0.0
 11
-7.48810263
 21
-7.6193018
 31
0.0
  0
LWPOLYLINE
  5
EA
102
{ACAD_REACTORS
330
EB
102
}
100
AcDbEntity
  8
LAYER_1
 62
     1
  6
CONTINUOUS
370
    -3
100
AcDbPolyline
 90
        4
 70
     1
 43
0.0
 10
-7.66210263
 20
-7.6143021
 10
-7.48810263
 20
-7.6143021
 10
-7.48810263
 20
-7.6193018
 10
-7.66210263
 20
-7.6193018
  0
HATCH
  5
EB
100
AcDbEntity
  8
LAYER_1
 62
   253
  6
CONTINUOUS
100
AcDbHatch
 10
0.0
 20
0.0
 30
0.0
210
0.0
220
0.0
230
1.0
  2
SOLID
 70
     1
 71
     1
 91
        1
 92
        7
 72
     0
 73
     1
 93
        4
 10
-7.66210263
 20
-7.6143021
 10
-7.48810263
 20
-7.6143021
 10
-7.48810263
 20
-7.6193018
 10
-7.66210263
 20
-7.6193018
 97
        1
330
EA
 75
     0
 76
     2
 47
0.775229
 98
        1
 10
0.0
 20
0.0
  0
LINE
  5
EC
100
AcDbEntity
  8
LAYER_1
 62
     1
  6
CONTINUOUS
370
    -3
100
AcDbLine
 10
-7.66210263
 20
-7.6243018
 30
0.0
 11
-7.48810263
 21
-7.6243018
 31
0.0
  0
LWPOLYLINE
  5
ED
102
{ACAD_REACTORS
330
EE
102
}
100
AcDbEntity
  8
LAYER_1
 62
     1
  6
CONTINUOUS
370
    -3
100
AcDbPolyline
 90
        4
 70
     1
 43
0.0
 10
-7.66210263
 20
-7.6193021
 10
-7.48810263
 20
-7.6193021
 10
-7.48810263
 20
-7.6243018
 10
-7.66210263
 20
-7.6243018
  0
HATCH
  5
EE
100
AcDbEntity
  8
LAYER_1
 62
   253
  6
CONTINUOUS
100
AcDbHatch
 10
0.0
 20
0.0
 30
0.0
210
0.0
220
0.0
230
1.0
  2
SOLID
 70
     1
 71
     1
 91
        1
 92
        7
 72
     0
 73
     1
 93
        4
 10
-7.66210263
 20
-7.6193021
 10
-7.48810263
 20
-7.6193021
 10
-7.48810263
 20
-7.6243018
 10
-7.66210263
 20
-7.6243018
 97
        1
330
ED
 75
     0
 76
     2
 47
0.775229
 98
        1
 10
0.0
 20
0.0
  0
LINE
  5
EF
100
AcDbEntity
  8
LAYER_1
 62
     1
  6
CONTINUOUS
370
    -3
100
AcDbLine
 10
-7.66210263
 20
-7.6243018
 30
0.0
 11
-7.48810263
 21
-7.6243018
 31
0.0
  0
LINE
  5
F0
100
AcDbEntity
  8
LAYER_1
 62
     1
  6
CONTINUOUS
370
    -3
100
AcDbLine
 10
-7.66210263
 20
-7.6290018
 30
0.0
 11
-7.48810263
 21
-7.6290018
 31
0.0
  0
LINE
  5
F1
100
AcDbEntity
  8
LAYER_1
 62
     1
  6
CONTINUOUS
370
    -3
100
AcDbLine
 10
-7.66210263
 20
-7.6290018
 30
0.0
 11
-7.48810263
 21
-7.6290018
 31
0.0
  0
LINE
  5
F2
100
AcDbEntity
  8
LAYER_1
 62
     1
  6
CONTINUOUS
370
    -3
100
AcDbLine
 10
-7.64210263
 20
-7.6243021
 30
0.0
 11
-7.64210263
 21
-7.6290018
 31
0.0
  0
LINE
  5
F3
100
AcDbEntity
  8
LAYER_1
 62
     1
  6
CONTINUOUS
370
    -3
100
AcDbLine
 10
-7.54550263
 20
-7.6193018
 30
0.0
 11
-7.54550263
 21
-7.6046024
 31
0.0
  0
LINE
  5
F4
100
AcDbEntity
  8
LAYER_1
 62
     1
  6
CONTINUOUS
370
    -3
100
AcDbLine
 10
-7.51110263
 20
-7.6193018
 30
0.0
 11
-7.51110263
 21
-7.6046024
 31
0.0
  0
LINE
  5
F5
100
AcDbEntity
  8
LAYER_1
 62
     1
  6
CONTINUOUS
370
    -3
100
AcDbLine
 10
-7.64210263
 20
-7.6193018
 30
0.0
 11
-7.64210263
 21
-7.6046024
 31
0.0
  0
LINE
  5
F6
100
AcDbEntity
  8
LAYER_1
 62
     1
  6
CONTINUOUS
370
    -3
100
AcDbLine
 10
-7.62830263
 20
-7.6193018
 30
0.0
 11
-7.62830263
 21
-7.6046024
 31
0.0
  0
LINE
  5
F7
100
AcDbEntity
  8
LAYER_1
 62
     1
  6
CONTINUOUS
370
    -3
100
AcDbLine
 10
-7.61450263
 20
-7.6193018
 30
0.0
 11
-7.61450263
 21
-7.6046024
 31
0.0
  0
LINE
  5
F8
100
AcDbEntity
  8
LAYER_1
 62
     1
  6
CONTINUOUS
370
    -3
100
AcDbLine
 10
-7.60070263
 20
-7.6193018
 30
0.0
 11
-7.60070263
 21
-7.6046024
 31
0.0
  0
LINE
  5
F9
100
AcDbEntity
  8
LAYER_1
 62
     1
  6
CONTINUOUS
370
    -3
100
AcDbLine
 10
-7.58690263
 20
-7.6193018
 30
0.0
 11
-7.58690263
 21
-7.6046024
 31
0.0
  0
LINE
  5
FA
100
AcDbEntity
  8
LAYER_1
 62
     1
  6
CONTINUOUS
370
    -3
100
AcDbLine
 10
-7.57310263
 20
-7.6193018
 30
0.0
 11
-7.57310263
 21
-7.6046024
 31
0.0
  0
LINE
  5
FB
100
AcDbEntity
  8
LAYER_1
 62
     1
  6
CONTINUOUS
370
    -3
100
AcDbLine
 10
-7.55930263
 20
-7.6193018
 30
0.0
 11
-7.55930263
 21
-7.6046024
 31
0.0
  0
LINE
  5
FC
100
AcDbEntity
  8
LAYER_1
 62
     1
  6
CONTINUOUS
370
    -3
100
AcDbLine
 10
-7.52750263
 20
-7.6193018
 30
0.0
 11
-7.52750263
 21
-7.6046024
 31
0.0
  0
LINE
  5
FD
100
AcDbEntity
  8
LAYER_1
 62
     1
  6
CONTINUOUS
370
    -3
100
AcDbLine
 10
-7.62830263
 20
-7.6243021
 30
0.0
 11
-7.62830263
 21
-7.6290018
 31
0.0
  0
LINE
  5
FE
100
AcDbEntity
  8
LAYER_1
 62
     1
  6
CONTINUOUS
370
    -3
100
AcDbLine
 10
-7.61450263
 20
-7.6243021
 30
0.0
 11
-7.61450263
 21
-7.6290018
 31
0.0
  0
LINE
  5
FF
100
AcDbEntity
  8
LAYER_1
 62
     1
  6
CONTINUOUS
370
    -3
100
AcDbLine
 10
-7.60070263
 20
-7.6243021
 30
0.0
 11
-7.60070263
 21
-7.6290018
 31
0.0
  0
LINE
  5
100
100
AcDbEntity
  8
LAYER_1
 62
     1
  6
CONTINUOUS
370
    -3
100
AcDbLine
 10
-7.58690263
 20
-7.6243021
 30
0.0
 11
-7.58690263
 21
-7.6290018
 31
0.0
  0
LINE
  5
101
100
AcDbEntity
  8
LAYER_1
 62
     1
  6
CONTINUOUS
370
    -3
100
AcDbLine
 10
-7.57310263
 20
-7.6243021
 30
0.0
 11
-7.57310263
 21
-7.6290018
 31
0.0
  0
LINE
  5
102
100
AcDbEntity
  8
LAYER_1
 62
     1
  6
CONTINUOUS
370
    -3
100
AcDbLine
 10
-7.55930263
 20
-7.6243021
 30
0.0
 11
-7.55930263
 21
-7.6290018
 31
0.0
  0
LINE
  5
103
100
AcDbEntity
  8
LAYER_1
 62
     1
  6
CONTINUOUS
370
    -3
100
AcDbLine
 10
-7.54550263
 20
-7.6243021
 30
0.0
 11
-7.54550263
 21
-7.6290018
 31
0.0
  0
LINE
  5
104
100
AcDbEntity
  8
LAYER_1
 62
     1
  6
CONTINUOUS
370
    -3
100
AcDbLine
 10
-7.52750263
 20
-7.6243021
 30
0.0
 11
-7.52750263
 21
-7.6290018
 31
0.0
  0
LINE
  5
105
100
AcDbEntity
  8
LAYER_1
 62
     1
  6
CONTINUOUS
370
    -3
100
AcDbLine
 10
-7.51110263
 20
-7.6243021
 30
0.0
 11
-7.51110263
 21
-7.6290018
 31
0.0
  0
LWPOLYLINE
  5
106
102
{ACAD_REACTORS
330
107
102
}
100
AcDbEntity
  8
LAYER_1
 62
     1
  6
CONTINUOUS
370
    -3
100
AcDbPolyline
 90
        4
 70
     1
 43
0.0
 10
-7.66210263
 20
-7.6290018
 10
-7.48810263
 20
-7.6290018
 10
-7.48810263
 20
-7.6295018
 10
-7.66210263
 20
-7.6295018
  0
HATCH
  5
107
100
AcDbEntity
  8
LAYER_1
 62
   253
  6
CONTINUOUS
100
AcDbHatch
 10
0.0
 20
0.0
 30
0.0
210
0.0
220
0.0
230
1.0
  2
SOLID
 70
     1
 71
     1
 91
        1
 92
        7
 72
     0
 73
     1
 93
        4
 10
-7.66210263
 20
-7.6290018
 10
-7.48810263
 20
-7.6290018
 10
-7.48810263
 20
-7.6295018
 10
-7.66210263
 20
-7.6295018
 97
        1
330
106
 75
     0
 76
     2
 47
0.775229
 98
        1
 10
0.0
 20
0.0
  0
LINE
  5
108
100
AcDbEntity
  8
LAYER_1
 62
     1
  6
CONTINUOUS
370
    -3
100
AcDbLine
 10
-7.64210263
 20
-7.6295018
 30
0.0
 11
-7.64210263
 21
-7.6436018
 31
0.0
  0
LINE
  5
109
100
AcDbEntity
  8
LAYER_1
 62
     1
  6
CONTINUOUS
370
    -3
100
AcDbLine
 10
-7.62830263
 20
-7.6295018
 30
0.0
 11
-7.62830263
 21
-7.6436018
 31
0.0
  0
LINE
  5
10A
100
AcDbEntity
  8
LAYER_1
 62
     1
  6
CONTINUOUS
370
    -3
100
AcDbLine
 10
-7.61450263
 20
-7.6295018
 30
0.0
 11
-7.61450263
 21
-7.6436018
 31
0.0
  0
LINE
  5
10B
100
AcDbEntity
  8
LAYER_1
 62
     1
  6
CONTINUOUS
370
    -3
100
AcDbLine
 10
-7.60070263
 20
-7.6295018
 30
0.0
 11
-7.60070263
 21
-7.6436018
 31
0.0
  0
LINE
  5
10C
100
AcDbEntity
  8
LAYER_1
 62
     1
  6
CONTINUOUS
370
    -3
100
AcDbLine
 10
-7.58690263
 20
-7.6295018
 30
0.0
 11
-7.58690263
 21
-7.6436018
 31
0.0
  0
LINE
  5
10D
100
AcDbEntity
  8
LAYER_1
 62
     1
  6
CONTINUOUS
370
    -3
100
AcDbLine
 10
-7.57310263
 20
-7.6295018
 30
0.0
 11
-7.57310263
 21
-7.6436018
 31
0.0
  0
LINE
  5
10E
100
AcDbEntity
  8
LAYER_1
 62
     1
  6
CONTINUOUS
370
    -3
100
AcDbLine
 10
-7.55930263
 20
-7.6295018
 30
0.0
 11
-7.55930263
 21
-7.6436018
 31
0.0
  0
LINE
  5
10F
100
AcDbEntity
  8
LAYER_1
 62
     1
  6
CONTINUOUS
370
    -3
100
AcDbLine
 10
-7.54550263
 20
-7.6295018
 30
0.0
 11
-7.54550263
 21
-7.6436018
 31
0.0
  0
LINE
  5
110
100
AcDbEntity
  8
LAYER_1
 62
     1
  6
CONTINUOUS
370
    -3
100
AcDbLine
 10
-7.52750263
 20
-7.6295018
 30
0.0
 11
-7.52750263
 21
-7.6436018
 31
0.0
  0
LINE
  5
111
100
AcDbEntity
  8
LAYER_1
 62
     1
  6
CONTINUOUS
370
    -3
100
AcDbLine
 10
-7.51110263
 20
-7.6295018
 30
0.0
 11
-7.51110263
 21
-7.6436018
 31
0.0
  0
LINE
  5
112
100
AcDbEntity
  8
LAYER_1
 62
     1
  6
CONTINUOUS
370
    -3
100
AcDbLine
 10
-7.66210263
 20
-7.6342018
 30
0.0
 11
-7.48810263
 21
-7.6342018
 31
0.0
  0
LINE
  5
113
100
AcDbEntity
  8
LAYER_1
 62
     1
  6
CONTINUOUS
370
    -3
100
AcDbLine
 10
-7.66210263
 20
-7.6389018
 30
0.0
 11
-7.48810263
 21
-7.6389018
 31
0.0
  0
LINE
  5
114
100
AcDbEntity
  8
LAYER_1
 62
     1
  6
CONTINUOUS
370
    -3
100
AcDbLine
 10
-7.66210263
 20
-7.6436018
 30
0.0
 11
-7.48810263
 21
-7.6436018
 31
0.0
  0
TEXT
  5
115
100
AcDbEntity
  8
LAYER_1
 62
     7
370
    35
100
AcDbText
 10
-7.66210263
 20
-7.40144139
 30
0.0
 40
0.005
  1
BASY
  7
ARIAL
 50
0.0
 41
1.0
 51
0.0
100
AcDbText
  0
TEXT
  5
116
100
AcDbEntity
  8
LAYER_1
 62
     7
370
    18
100
AcDbText
 10
-7.64280483
 20
-7.40144139
 30
0.0
 40
0.005
  1
DIL
  7
ARIAL
 50
0.0
 41
1.0
 51
0.0
100
AcDbText
  0
TEXT
  5
117
100
AcDbEntity
  8
LAYER_1
 62
     7
370
    18
100
AcDbText
 10
-7.58310263
 20
-7.40144139
 30
0.0
 40
0.005
  1
Bestellliste
  7
ARIAL
 50
0.0
 41
1.0
 51
0.0
100
AcDbText
  0
TEXT
  5
118
100
AcDbEntity
  8
LAYER_1
 62
     7
370
    35
100
AcDbText
 10
-7.52065057
 20
-7.40044139
 30
0.0
 40
0.004
  1
Deckenlager
  7
ARIAL
 50
0.0
 41
1.0
 51
0.0
100
AcDbText
  0
TEXT
  5
119
100
AcDbEntity
  8
LAYER_1
 62
     2
370
    18
100
AcDbText
 10
-7.66210263
 20
-7.41594139
 30
0.0
 40
0.003
  1
BASYS AG, Bausysteme
  7
ARIAL
 50
0.0
 41
0.9
 51
0.0
100
AcDbText
  0
TEXT
  5
11A
100
AcDbEntity
  8
LAYER_1
 62
     2
370
    18
100
AcDbText
 10
-7.61110263
 20
-7.41594139
 30
0.0
 40
0.003
  1
Tel. 034 448 23 23
  7
ARIAL
 50
0.0
 41
0.9
 51
0.0
100
AcDbText
  0
TEXT
  5
11B
100
AcDbEntity
  8
LAYER_1
 62
     2
370
    18
100
AcDbText
 10
-7.66210263
 20
-7.42094139
 30
0.0
 40
0.003
  1
Industrie Neuhof 33
  7
ARIAL
 50
0.0
 41
0.9
 51
0.0
100
AcDbText
  0
TEXT
  5
11C
100
AcDbEntity
  8
LAYER_1
 62
     2
370
    18
100
AcDbText
 10
-7.61110263
 20
-7.42094139
 30
0.0
 40
0.003
  1
Fax 034 448 23 20
  7
ARIAL
 50
0.0
 41
0.9
 51
0.0
100
AcDbText
  0
TEXT
  5
11D
100
AcDbEntity
  8
LAYER_1
 62
     2
370
    18
100
AcDbText
 10
-7.66210263
 20
-7.42594139
 30
0.0
 40
0.003
  1
3422 Kirchberg
  7
ARIAL
 50
0.0
 41
0.9
 51
0.0
100
AcDbText
  0
TEXT
  5
11E
100
AcDbEntity
  8
LAYER_1
 62
     2
370
    18
100
AcDbText
 10
-7.61110263
 20
-7.42594139
 30
0.0
 40
0.003
  1
www.basys.ch /
  7
ARIAL
 50
0.0
 41
0.9
 51
0.0
100
AcDbText
  0
TEXT
  5
11F
100
AcDbEntity
  8
LAYER_1
 62
     2
370
    35
100
AcDbText
 10
-7.58398251
 20
-7.42594139
 30
0.0
 40
0.003
  1
info@basys.ch
  7
ARIAL
 50
0.0
 41
0.9
 51
0.0
100
AcDbText
  0
TEXT
  5
120
100
AcDbEntity
  8
LAYER_1
 62
     1
370
    18
100
AcDbText
 10
-7.57810263
 20
-7.40753605
 30
0.0
 40
0.0015
  1
(Änderungen vorbehalten)
  7
ARIAL
 50
0.0
 41
0.9
 51
0.0
100
AcDbText
  0
TEXT
  5
121
100
AcDbEntity
  8
LAYER_1
 62
     1
370
    35
100
AcDbText
 10
-7.57575263
 20
-7.40453605
 30
0.0
 40
0.0015
  1
Ausgabe 2019 - CH
  7
ARIAL
 50
0.0
 41
0.9
 51
0.0
100
AcDbText
  0
TEXT
  5
122
100
AcDbEntity
  8
LAYER_1
 62
     2
370
    18
100
AcDbText
 10
-7.66060263
 20
-7.4384027
 30
0.0
 40
0.002
  1
Nr.:
  7
ARIAL
 50
0.0
 41
1.02
 51
0.0
100
AcDbText
  0
TEXT
  5
123
100
AcDbEntity
  8
LAYER_1
 62
     2
370
    18
100
AcDbText
 10
-7.58680262
 20
-7.4384027
 30
0.0
 40
0.002
  1
Plan Nr.:
  7
ARIAL
 50
0.0
 41
1.02
 51
0.0
100
AcDbText
  0
TEXT
  5
124
100
AcDbEntity
  8
LAYER_1
 62
     2
370
    18
100
AcDbText
 10
-7.52298026
 20
-7.4384027
 30
0.0
 40
0.002
  1
Datum:
  7
ARIAL
 50
0.0
 41
1.02
 51
0.0
100
AcDbText
  0
TEXT
  5
125
100
AcDbEntity
  8
LAYER_1
 62
     2
370
    18
100
AcDbText
 10
-7.66060263
 20
-7.4444027
 30
0.0
 40
0.002
  1
Objekt und Bauteil:
  7
ARIAL
 50
0.0
 41
1.02
 51
0.0
100
AcDbText
  0
TEXT
  5
126
100
AcDbEntity
  8
LAYER_1
 62
     2
370
    18
100
AcDbText
 10
-7.66060263
 20
-7.4494027
 30
0.0
 40
0.002
  1
Strasse, Nr.:
  7
ARIAL
 50
0.0
 41
1.02
 51
0.0
100
AcDbText
  0
TEXT
  5
127
100
AcDbEntity
  8
LAYER_1
 62
     2
370
    18
100
AcDbText
 10
-7.57360263
 20
-7.4494027
 30
0.0
 40
0.002
  1
PLZ, Ort:
  7
ARIAL
 50
0.0
 41
1.02
 51
0.0
100
AcDbText
  0
TEXT
  5
128
100
AcDbEntity
  8
LAYER_1
 62
     2
370
    18
100
AcDbText
 10
-7.57360263
 20
-7.4554027
 30
0.0
 40
0.002
  1
Lieferort:
  7
ARIAL
 50
0.0
 41
1.02
 51
0.0
100
AcDbText
  0
TEXT
  5
129
100
AcDbEntity
  8
LAYER_1
 62
     2
370
    18
100
AcDbText
 10
-7.66060263
 20
-7.4554027
 30
0.0
 40
0.002
  1
Ingenieurbüro:
  7
ARIAL
 50
0.0
 41
1.02
 51
0.0
100
AcDbText
  0
TEXT
  5
12A
100
AcDbEntity
  8
LAYER_1
 62
     2
370
    18
100
AcDbText
 10
-7.66060263
 20
-7.4669027
 30
0.0
 40
0.002
  1
zuständige Person:
  7
ARIAL
 50
0.0
 41
1.02
 51
0.0
100
AcDbText
  0
TEXT
  5
12B
100
AcDbEntity
  8
LAYER_1
 62
     2
370
    18
100
AcDbText
 10
-7.57360263
 20
-7.4669027
 30
0.0
 40
0.002
  1
Kommission:
  7
ARIAL
 50
0.0
 41
1.02
 51
0.0
100
AcDbText
  0
TEXT
  5
12C
100
AcDbEntity
  8
LAYER_1
 62
     2
370
    18
100
AcDbText
 10
-7.57360263
 20
-7.4709027
 30
0.0
 40
0.002
  1
Lieferbemerkung:
  7
ARIAL
 50
0.0
 41
1.02
 51
0.0
100
AcDbText
  0
TEXT
  5
12D
100
AcDbEntity
  8
LAYER_1
 62
     2
370
    18
100
AcDbText
 10
-7.66060263
 20
-7.4709027
 30
0.0
 40
0.002
  1
Bestellung geprüft am:
  7
ARIAL
 50
0.0
 41
1.02
 51
0.0
100
AcDbText
  0
TEXT
  5
12E
100
AcDbEntity
  8
LAYER_1
 62
     2
370
    18
100
AcDbText
 10
-7.57360263
 20
-7.4629027
 30
0.0
 40
0.002
  1
Liefertermin:
  7
ARIAL
 50
0.0
 41
1.02
 51
0.0
100
AcDbText
  0
TEXT
  5
12F
100
AcDbEntity
  8
LAYER_1
 62
     2
370
    18
100
AcDbText
 10
-7.66060263
 20
-7.4774027
 30
0.0
 40
0.002
  1
Bauunternehmer:
  7
ARIAL
 50
0.0
 41
1.02
 51
0.0
100
AcDbText
  0
TEXT
  5
130
100
AcDbEntity
  8
LAYER_1
 62
     2
370
    18
100
AcDbText
 10
-7.57360263
 20
-7.4774027
 30
0.0
 40
0.002
  1
Verrechnungsstelle:
  7
ARIAL
 50
0.0
 41
1.02
 51
0.0
100
AcDbText
  0
TEXT
  5
131
100
AcDbEntity
  8
LAYER_1
 62
     2
370
    18
100
AcDbText
 10
-7.57360263
 20
-7.4809027
 30
0.0
 40
0.002
  1
(Stahl- oder Baumaterialhandel)
  7
ARIAL
 50
0.0
 41
1.02
 51
0.0
100
AcDbText
  0
TEXT
  5
132
100
AcDbEntity
  8
LAYER_1
 62
     2
370
    18
100
AcDbText
 10
-7.66060263
 20
-7.4879027
 30
0.0
 40
0.002
  1
Bauführer:
  7
ARIAL
 50
0.0
 41
1.02
 51
0.0
100
AcDbText
  0
TEXT
  5
133
100
AcDbEntity
  8
LAYER_1
 62
     2
370
    18
100
AcDbText
 10
-7.66060263
 20
-7.4919027
 30
0.0
 40
0.002
  1
Baustellentelefon:
  7
ARIAL
 50
0.0
 41
1.02
 51
0.0
100
AcDbText
  0
TEXT
  5
134
100
AcDbEntity
  8
LAYER_1
 62
     2
370
    18
100
AcDbText
 10
-7.66060263
 20
-7.4971527
 30
0.0
 40
0.0025
  1
Anzahl Meter ins entsprechende Feld eintragen
  7
ARIAL
 50
0.0
 41
0.9
 51
0.0
100
AcDbText
  0
TEXT
  5
135
100
AcDbEntity
  8
LAYER_1
 62
     2
370
    18
100
AcDbText
 10
-7.66060263
 20
-7.6471018
 30
0.0
 40
0.002
  1
Bestellung erhalten am:
  7
ARIAL
 50
0.0
 41
1.02
 51
0.0
100
AcDbText
  0
TEXT
  5
136
100
AcDbEntity
  8
LAYER_1
 62
     2
370
    18
100
AcDbText
 10
-7.58660263
 20
-7.6471018
 30
0.0
 40
0.002
  1
Mail
  7
ARIAL
 50
0.0
 41
1.02
 51
0.0
100
AcDbText
  0
TEXT
  5
137
100
AcDbEntity
  8
LAYER_1
 62
     2
370
    18
100
AcDbText
 10
-7.57560263
 20
-7.6471018
 30
0.0
 40
0.002
  1
per Tel.
  7
ARIAL
 50
0.0
 41
1.02
 51
0.0
100
AcDbText
  0
TEXT
  5
138
100
AcDbEntity
  8
LAYER_1
 62
     2
370
    18
100
AcDbText
 10
-7.55960263
 20
-7.6471018
 30
0.0
 40
0.002
  1
Fax
  7
ARIAL
 50
0.0
 41
1.02
 51
0.0
100
AcDbText
  0
TEXT
  5
139
100
AcDbEntity
  8
LAYER_1
 62
     2
370
    18
100
AcDbText
 10
-7.54910263
 20
-7.6471018
 30
0.0
 40
0.002
  1
Post
  7
ARIAL
 50
0.0
 41
1.02
 51
0.0
100
AcDbText
  0
TEXT
  5
13A
100
AcDbEntity
  8
LAYER_1
 62
     2
370
    18
100
AcDbText
 10
-7.52610263
 20
-7.6471018
 30
0.0
 40
0.002
  1
Aufnahme durch:
  7
ARIAL
 50
0.0
 41
1.02
 51
0.0
100
AcDbText
  0
TEXT
  5
13B
100
AcDbEntity
  8
LAYER_1
 62
     2
370
    18
100
AcDbText
 10
-7.48434535
 20
-7.64858801
 30
0.0
 40
0.002
  1
09-19
  7
ARIAL
 50
89.9999975
 41
0.7
 51
0.0
100
AcDbText
  0
TEXT
  5
13C
100
AcDbEntity
  8
LAYER_1
 62
     2
370
    35
100
AcDbText
 10
-7.66075263
 20
-7.5021524
 30
0.0
 40
0.0025
  1
Deckenlager
  7
ARIAL
 50
0.0
 41
0.85
 51
0.0
100
AcDbText
  0
TEXT
  5
13D
100
AcDbEntity
  8
LAYER_1
 62
     7
370
    35
100
AcDbText
 10
-7.66210263
 20
-7.40816048
 30
0.0
 40
0.005
  1
BASY
  7
ARIAL
 50
0.0
 41
1.0
 51
0.0
100
AcDbText
  0
TEXT
  5
13E
100
AcDbEntity
  8
LAYER_1
 62
     7
370
    18
100
AcDbText
 10
-7.64280483
 20
-7.40816048
 30
0.0
 40
0.005
  1
SONIC
  7
ARIAL
 50
0.0
 41
1.0
 51
0.0
100
AcDbText
  0
TEXT
  5
13F
100
AcDbEntity
  8
LAYER_1
 62
     7
370
    35
100
AcDbText
 10
-7.51610263
 20
-7.40844139
 30
0.0
 40
0.004
  1
Wandlager
  7
ARIAL
 50
0.0
 41
1.0
 51
0.0
100
AcDbText
  0
TEXT
  5
140
100
AcDbEntity
  8
LAYER_1
 62
     2
370
    18
100
AcDbText
 10
-7.54360263
 20
-7.4971527
 30
0.0
 40
0.0025
  1
für Spezialbreiten
  7
ARIAL
 50
0.0
 41
0.9
 51
0.0
100
AcDbText
  0
TEXT
  5
141
100
AcDbEntity
  8
LAYER_1
 62
     2
370
    35
100
AcDbText
 10
-7.63920263
 20
-7.5021524
 30
0.0
 40
0.0025
  1
Farbe
  7
ARIAL
 50
0.0
 41
0.85
 51
0.0
100
AcDbText
  0
TEXT
  5
142
100
AcDbEntity
  8
LAYER_1
 62
     2
370
    35
100
AcDbText
 10
-7.62550263
 20
-7.5021524
 30
0.0
 40
0.0025
  1
12 cm
  7
ARIAL
 50
0.0
 41
0.85
 51
0.0
100
AcDbText
  0
TEXT
  5
143
100
AcDbEntity
  8
LAYER_1
 62
     2
370
    35
100
AcDbText
 10
-7.61295263
 20
-7.5021524
 30
0.0
 40
0.0025
  1
12.5 cm
  7
ARIAL
 50
0.0
 41
0.85
 51
0.0
100
AcDbText
  0
TEXT
  5
144
100
AcDbEntity
  8
LAYER_1
 62
     2
370
    35
100
AcDbText
 10
-7.59790263
 20
-7.5021524
 30
0.0
 40
0.0025
  1
15 cm
  7
ARIAL
 50
0.0
 41
0.85
 51
0.0
100
AcDbText
  0
TEXT
  5
145
100
AcDbEntity
  8
LAYER_1
 62
     2
370
    35
100
AcDbText
 10
-7.57030263
 20
-7.5021524
 30
0.0
 40
0.0025
  1
18 cm
  7
ARIAL
 50
0.0
 41
0.85
 51
0.0
100
AcDbText
  0
TEXT
  5
146
100
AcDbEntity
  8
LAYER_1
 62
     2
370
    35
100
AcDbText
 10
-7.55650263
 20
-7.5021524
 30
0.0
 40
0.0025
  1
20 cm
  7
ARIAL
 50
0.0
 41
0.85
 51
0.0
100
AcDbText
  0
TEXT
  5
147
100
AcDbEntity
  8
LAYER_1
 62
     2
370
    35
100
AcDbText
 10
-7.58535263
 20
-7.5021524
 30
0.0
 40
0.0025
  1
17.5 cm
  7
ARIAL
 50
0.0
 41
0.85
 51
0.0
100
AcDbText
  0
TEXT
  5
148
100
AcDbEntity
  8
LAYER_1
 62
     2
370
    18
100
AcDbText
 10
-7.54270263
 20
-7.5021524
 30
0.0
 40
0.0025
  1
Breite cm
  7
ARIAL
 50
0.0
 41
0.85
 51
0.0
100
AcDbText
  0
TEXT
  5
149
100
AcDbEntity
  8
LAYER_1
 62
     2
370
    18
100
AcDbText
 10
-7.52415263
 20
-7.5021524
 30
0.0
 40
0.0025
  1
Anz. m'
  7
ARIAL
 50
0.0
 41
0.85
 51
0.0
100
AcDbText
  0
TEXT
  5
14A
100
AcDbEntity
  8
LAYER_1
 62
     2
370
    35
100
AcDbText
 10
-7.50760263
 20
-7.5021524
 30
0.0
 40
0.0025
  1
Bemerkung
  7
ARIAL
 50
0.0
 41
0.85
 51
0.0
100
AcDbText
  0
TEXT
  5
14B
100
AcDbEntity
  8
LAYER_1
 62
     2
370
    18
100
AcDbText
 10
-7.66060263
 20
-7.5070024
 30
0.0
 40
0.0025
  1
LDF 60-
  7
ARIAL
 50
0.0
 41
0.9
 51
0.0
100
AcDbText
  0
TEXT
  5
14C
100
AcDbEntity
  8
LAYER_1
 62
     2
370
    18
100
AcDbText
 10
-7.66060263
 20
-7.5117024
 30
0.0
 40
0.0025
  1
LDF 75-
  7
ARIAL
 50
0.0
 41
0.9
 51
0.0
100
AcDbText
  0
TEXT
  5
14D
100
AcDbEntity
  8
LAYER_1
 62
     2
370
    18
100
AcDbText
 10
-7.66060263
 20
-7.5164024
 30
0.0
 40
0.0025
  1
LDF 100-
  7
ARIAL
 50
0.0
 41
0.9
 51
0.0
100
AcDbText
  0
TEXT
  5
14E
100
AcDbEntity
  8
LAYER_1
 62
     2
370
    18
100
AcDbText
 10
-7.66060263
 20
-7.5211024
 30
0.0
 40
0.0025
  1
LDF 150-
  7
ARIAL
 50
0.0
 41
0.9
 51
0.0
100
AcDbText
  0
TEXT
  5
14F
100
AcDbEntity
  8
LAYER_1
 62
     2
370
    18
100
AcDbText
 10
-7.66060263
 20
-7.5258024
 30
0.0
 40
0.0025
  1
LDF 200-
  7
ARIAL
 50
0.0
 41
0.9
 51
0.0
100
AcDbText
  0
TEXT
  5
150
100
AcDbEntity
  8
LAYER_1
 62
     2
370
    18
100
AcDbText
 10
-7.66060263
 20
-7.5305024
 30
0.0
 40
0.0025
  1
LDF 300-
  7
ARIAL
 50
0.0
 41
0.9
 51
0.0
100
AcDbText
  0
TEXT
  5
151
100
AcDbEntity
  8
LAYER_1
 62
     2
370
    18
100
AcDbText
 10
-7.66060263
 20
-7.5357024
 30
0.0
 40
0.0025
  1
LDS 180-
  7
ARIAL
 50
0.0
 41
0.9
 51
0.0
100
AcDbText
  0
TEXT
  5
152
100
AcDbEntity
  8
LAYER_1
 62
     2
370
    18
100
AcDbText
 10
-7.63810263
 20
-7.5070024
 30
0.0
 40
0.0025
  1
gelb
  7
ARIAL
 50
0.0
 41
0.9
 51
0.0
100
AcDbText
  0
TEXT
  5
153
100
AcDbEntity
  8
LAYER_1
 62
     2
370
    18
100
AcDbText
 10
-7.63810263
 20
-7.5117024
 30
0.0
 40
0.0025
  1
gelb
  7
ARIAL
 50
0.0
 41
0.9
 51
0.0
100
AcDbText
  0
TEXT
  5
154
100
AcDbEntity
  8
LAYER_1
 62
     2
370
    18
100
AcDbText
 10
-7.63810263
 20
-7.5164024
 30
0.0
 40
0.0025
  1
gelb
  7
ARIAL
 50
0.0
 41
0.9
 51
0.0
100
AcDbText
  0
TEXT
  5
155
100
AcDbEntity
  8
LAYER_1
 62
     2
370
    18
100
AcDbText
 10
-7.63810263
 20
-7.5211024
 30
0.0
 40
0.0025
  1
gelb
  7
ARIAL
 50
0.0
 41
0.9
 51
0.0
100
AcDbText
  0
TEXT
  5
156
100
AcDbEntity
  8
LAYER_1
 62
     2
370
    18
100
AcDbText
 10
-7.63810263
 20
-7.5258024
 30
0.0
 40
0.0025
  1
gelb
  7
ARIAL
 50
0.0
 41
0.9
 51
0.0
100
AcDbText
  0
TEXT
  5
157
100
AcDbEntity
  8
LAYER_1
 62
     2
370
    18
100
AcDbText
 10
-7.63810263
 20
-7.5305024
 30
0.0
 40
0.0025
  1
gelb
  7
ARIAL
 50
0.0
 41
0.9
 51
0.0
100
AcDbText
  0
TEXT
  5
158
100
AcDbEntity
  8
LAYER_1
 62
     2
370
    18
100
AcDbText
 10
-7.63810263
 20
-7.5357024
 30
0.0
 40
0.0025
  1
gelb
  7
ARIAL
 50
0.0
 41
0.9
 51
0.0
100
AcDbText
  0
TEXT
  5
159
100
AcDbEntity
  8
LAYER_1
 62
     2
370
    18
100
AcDbText
 10
-7.66060263
 20
-7.5409024
 30
0.0
 40
0.0025
  1
LBG 60-
  7
ARIAL
 50
0.0
 41
0.9
 51
0.0
100
AcDbText
  0
TEXT
  5
15A
100
AcDbEntity
  8
LAYER_1
 62
     2
370
    18
100
AcDbText
 10
-7.63810263
 20
-7.5409024
 30
0.0
 40
0.0025
  1
blau
  7
ARIAL
 50
0.0
 41
0.9
 51
0.0
100
AcDbText
  0
TEXT
  5
15B
100
AcDbEntity
  8
LAYER_1
 62
     2
370
    18
100
AcDbText
 10
-7.66060263
 20
-7.5456024
 30
0.0
 40
0.0025
  1
LBG 75-
  7
ARIAL
 50
0.0
 41
0.9
 51
0.0
100
AcDbText
  0
TEXT
  5
15C
100
AcDbEntity
  8
LAYER_1
 62
     2
370
    18
100
AcDbText
 10
-7.63810263
 20
-7.5456024
 30
0.0
 40
0.0025
  1
blau
  7
ARIAL
 50
0.0
 41
0.9
 51
0.0
100
AcDbText
  0
TEXT
  5
15D
100
AcDbEntity
  8
LAYER_1
 62
     2
370
    18
100
AcDbText
 10
-7.66060263
 20
-7.5503024
 30
0.0
 40
0.0025
  1
LBG 100-
  7
ARIAL
 50
0.0
 41
0.9
 51
0.0
100
AcDbText
  0
TEXT
  5
15E
100
AcDbEntity
  8
LAYER_1
 62
     2
370
    18
100
AcDbText
 10
-7.63810263
 20
-7.5503024
 30
0.0
 40
0.0025
  1
blau
  7
ARIAL
 50
0.0
 41
0.9
 51
0.0
100
AcDbText
  0
TEXT
  5
15F
100
AcDbEntity
  8
LAYER_1
 62
     2
370
    18
100
AcDbText
 10
-7.66060263
 20
-7.5550024
 30
0.0
 40
0.0025
  1
LBG 150-
  7
ARIAL
 50
0.0
 41
0.9
 51
0.0
100
AcDbText
  0
TEXT
  5
160
100
AcDbEntity
  8
LAYER_1
 62
     2
370
    18
100
AcDbText
 10
-7.63810263
 20
-7.5550024
 30
0.0
 40
0.0025
  1
blau
  7
ARIAL
 50
0.0
 41
0.9
 51
0.0
100
AcDbText
  0
TEXT
  5
161
100
AcDbEntity
  8
LAYER_1
 62
     2
370
    18
100
AcDbText
 10
-7.66060263
 20
-7.5597024
 30
0.0
 40
0.0025
  1
LBG 200-
  7
ARIAL
 50
0.0
 41
0.9
 51
0.0
100
AcDbText
  0
TEXT
  5
162
100
AcDbEntity
  8
LAYER_1
 62
     2
370
    18
100
AcDbText
 10
-7.63810263
 20
-7.5597024
 30
0.0
 40
0.0025
  1
blau
  7
ARIAL
 50
0.0
 41
0.9
 51
0.0
100
AcDbText
  0
TEXT
  5
163
100
AcDbEntity
  8
LAYER_1
 62
     2
370
    18
100
AcDbText
 10
-7.66060263
 20
-7.5644024
 30
0.0
 40
0.0025
  1
LBG 300-
  7
ARIAL
 50
0.0
 41
0.9
 51
0.0
100
AcDbText
  0
TEXT
  5
164
100
AcDbEntity
  8
LAYER_1
 62
     2
370
    18
100
AcDbText
 10
-7.63810263
 20
-7.5644024
 30
0.0
 40
0.0025
  1
blau
  7
ARIAL
 50
0.0
 41
0.9
 51
0.0
100
AcDbText
  0
TEXT
  5
165
100
AcDbEntity
  8
LAYER_1
 62
     2
370
    18
100
AcDbText
 10
-7.66060263
 20
-7.5696024
 30
0.0
 40
0.0025
  1
LDG 60-
  7
ARIAL
 50
0.0
 41
0.9
 51
0.0
100
AcDbText
  0
TEXT
  5
166
100
AcDbEntity
  8
LAYER_1
 62
     2
370
    18
100
AcDbText
 10
-7.63710263
 20
-7.5696024
 30
0.0
 40
0.0025
  1
rot
  7
ARIAL
 50
0.0
 41
0.9
 51
0.0
100
AcDbText
  0
TEXT
  5
167
100
AcDbEntity
  8
LAYER_1
 62
     2
370
    18
100
AcDbText
 10
-7.66060263
 20
-7.5743024
 30
0.0
 40
0.0025
  1
LDG 75-
  7
ARIAL
 50
0.0
 41
0.9
 51
0.0
100
AcDbText
  0
TEXT
  5
168
100
AcDbEntity
  8
LAYER_1
 62
     2
370
    18
100
AcDbText
 10
-7.63710263
 20
-7.5743024
 30
0.0
 40
0.0025
  1
rot
  7
ARIAL
 50
0.0
 41
0.9
 51
0.0
100
AcDbText
  0
TEXT
  5
169
100
AcDbEntity
  8
LAYER_1
 62
     2
370
    18
100
AcDbText
 10
-7.66060263
 20
-7.5790024
 30
0.0
 40
0.0025
  1
LDG 100-
  7
ARIAL
 50
0.0
 41
0.9
 51
0.0
100
AcDbText
  0
TEXT
  5
16A
100
AcDbEntity
  8
LAYER_1
 62
     2
370
    18
100
AcDbText
 10
-7.63710263
 20
-7.5790024
 30
0.0
 40
0.0025
  1
rot
  7
ARIAL
 50
0.0
 41
0.9
 51
0.0
100
AcDbText
  0
TEXT
  5
16B
100
AcDbEntity
  8
LAYER_1
 62
     2
370
    18
100
AcDbText
 10
-7.66060263
 20
-7.5837024
 30
0.0
 40
0.0025
  1
LDG 150-
  7
ARIAL
 50
0.0
 41
0.9
 51
0.0
100
AcDbText
  0
TEXT
  5
16C
100
AcDbEntity
  8
LAYER_1
 62
     2
370
    18
100
AcDbText
 10
-7.63710263
 20
-7.5837024
 30
0.0
 40
0.0025
  1
rot
  7
ARIAL
 50
0.0
 41
0.9
 51
0.0
100
AcDbText
  0
TEXT
  5
16D
100
AcDbEntity
  8
LAYER_1
 62
     2
370
    18
100
AcDbText
 10
-7.66060263
 20
-7.5884024
 30
0.0
 40
0.0025
  1
LDG 200-
  7
ARIAL
 50
0.0
 41
0.9
 51
0.0
100
AcDbText
  0
TEXT
  5
16E
100
AcDbEntity
  8
LAYER_1
 62
     2
370
    18
100
AcDbText
 10
-7.63710263
 20
-7.5884024
 30
0.0
 40
0.0025
  1
rot
  7
ARIAL
 50
0.0
 41
0.9
 51
0.0
100
AcDbText
  0
TEXT
  5
16F
100
AcDbEntity
  8
LAYER_1
 62
     2
370
    18
100
AcDbText
 10
-7.66060263
 20
-7.5931024
 30
0.0
 40
0.0025
  1
LDG 300-
  7
ARIAL
 50
0.0
 41
0.9
 51
0.0
100
AcDbText
  0
TEXT
  5
170
100
AcDbEntity
  8
LAYER_1
 62
     2
370
    18
100
AcDbText
 10
-7.63710263
 20
-7.5931024
 30
0.0
 40
0.0025
  1
rot
  7
ARIAL
 50
0.0
 41
0.9
 51
0.0
100
AcDbText
  0
TEXT
  5
171
100
AcDbEntity
  8
LAYER_1
 62
     2
370
    18
100
AcDbText
 10
-7.66060263
 20
-7.5983024
 30
0.0
 40
0.0025
  1
LGL-
  7
ARIAL
 50
0.0
 41
0.9
 51
0.0
100
AcDbText
  0
TEXT
  5
172
100
AcDbEntity
  8
LAYER_1
 62
     2
370
    18
100
AcDbText
 10
-7.63860263
 20
-7.5983024
 30
0.0
 40
0.0025
  1
grün
  7
ARIAL
 50
0.0
 41
0.9
 51
0.0
100
AcDbText
  0
TEXT
  5
173
100
AcDbEntity
  8
LAYER_1
 62
     2
370
    18
100
AcDbText
 10
-7.66060263
 20
-7.6035024
 30
0.0
 40
0.0025
  1
LGF-
  7
ARIAL
 50
0.0
 41
0.9
 51
0.0
100
AcDbText
  0
TEXT
  5
174
100
AcDbEntity
  8
LAYER_1
 62
     2
370
    18
100
AcDbText
 10
-7.63905263
 20
-7.6035024
 30
0.0
 40
0.0025
  1
weiss
  7
ARIAL
 50
0.0
 41
0.9
 51
0.0
100
AcDbText
  0
TEXT
  5
175
100
AcDbEntity
  8
LAYER_1
 62
     2
370
    35
100
AcDbText
 10
-7.66075263
 20
-7.6083521
 30
0.0
 40
0.0025
  1
Trennlager
  7
ARIAL
 50
0.0
 41
0.85
 51
0.0
100
AcDbText
  0
TEXT
  5
176
100
AcDbEntity
  8
LAYER_1
 62
     2
370
    35
100
AcDbText
 10
-7.63920263
 20
-7.6083521
 30
0.0
 40
0.0025
  1
Farbe
  7
ARIAL
 50
0.0
 41
0.85
 51
0.0
100
AcDbText
  0
TEXT
  5
177
100
AcDbEntity
  8
LAYER_1
 62
     2
370
    35
100
AcDbText
 10
-7.62550263
 20
-7.6083521
 30
0.0
 40
0.0025
  1
12 cm
  7
ARIAL
 50
0.0
 41
0.85
 51
0.0
100
AcDbText
  0
TEXT
  5
178
100
AcDbEntity
  8
LAYER_1
 62
     2
370
    35
100
AcDbText
 10
-7.61295263
 20
-7.6083521
 30
0.0
 40
0.0025
  1
12.5 cm
  7
ARIAL
 50
0.0
 41
0.85
 51
0.0
100
AcDbText
  0
TEXT
  5
179
100
AcDbEntity
  8
LAYER_1
 62
     2
370
    35
100
AcDbText
 10
-7.59790263
 20
-7.6083521
 30
0.0
 40
0.0025
  1
15 cm
  7
ARIAL
 50
0.0
 41
0.85
 51
0.0
100
AcDbText
  0
TEXT
  5
17A
100
AcDbEntity
  8
LAYER_1
 62
     2
370
    35
100
AcDbText
 10
-7.57030263
 20
-7.6083521
 30
0.0
 40
0.0025
  1
18 cm
  7
ARIAL
 50
0.0
 41
0.85
 51
0.0
100
AcDbText
  0
TEXT
  5
17B
100
AcDbEntity
  8
LAYER_1
 62
     2
370
    35
100
AcDbText
 10
-7.55650263
 20
-7.6083521
 30
0.0
 40
0.0025
  1
20 cm
  7
ARIAL
 50
0.0
 41
0.85
 51
0.0
100
AcDbText
  0
TEXT
  5
17C
100
AcDbEntity
  8
LAYER_1
 62
     2
370
    35
100
AcDbText
 10
-7.58535263
 20
-7.6083521
 30
0.0
 40
0.0025
  1
17.5 cm
  7
ARIAL
 50
0.0
 41
0.85
 51
0.0
100
AcDbText
  0
TEXT
  5
17D
100
AcDbEntity
  8
LAYER_1
 62
     2
370
    18
100
AcDbText
 10
-7.54270263
 20
-7.6083521
 30
0.0
 40
0.0025
  1
Breite cm
  7
ARIAL
 50
0.0
 41
0.85
 51
0.0
100
AcDbText
  0
TEXT
  5
17E
100
AcDbEntity
  8
LAYER_1
 62
     2
370
    18
100
AcDbText
 10
-7.52415263
 20
-7.6083521
 30
0.0
 40
0.0025
  1
Anz. m'
  7
ARIAL
 50
0.0
 41
0.85
 51
0.0
100
AcDbText
  0
TEXT
  5
17F
100
AcDbEntity
  8
LAYER_1
 62
     2
370
    35
100
AcDbText
 10
-7.50760263
 20
-7.6083521
 30
0.0
 40
0.0025
  1
Bemerkung
  7
ARIAL
 50
0.0
 41
0.85
 51
0.0
100
AcDbText
  0
TEXT
  5
180
100
AcDbEntity
  8
LAYER_1
 62
     2
370
    18
100
AcDbText
 10
-7.66060263
 20
-7.6132021
 30
0.0
 40
0.0025
  1
TVN-
  7
ARIAL
 50
0.0
 41
0.9
 51
0.0
100
AcDbText
  0
TEXT
  5
181
100
AcDbEntity
  8
LAYER_1
 62
     2
370
    18
100
AcDbText
 10
-7.64085263
 20
-7.6132021
 30
0.0
 40
0.0025
  1
schwarz
  7
ARIAL
 50
0.0
 41
0.9
 51
0.0
100
AcDbText
  0
TEXT
  5
182
100
AcDbEntity
  8
LAYER_1
 62
     2
370
    35
100
AcDbText
 10
-7.66075263
 20
-7.6180518
 30
0.0
 40
0.0025
  1
Wandlager
  7
ARIAL
 50
0.0
 41
0.85
 51
0.0
100
AcDbText
  0
TEXT
  5
183
100
AcDbEntity
  8
LAYER_1
 62
     2
370
    35
100
AcDbText
 10
-7.63920263
 20
-7.6180518
 30
0.0
 40
0.0025
  1
Farbe
  7
ARIAL
 50
0.0
 41
0.85
 51
0.0
100
AcDbText
  0
TEXT
  5
184
100
AcDbEntity
  8
LAYER_1
 62
     2
370
    35
100
AcDbText
 10
-7.62550263
 20
-7.6180518
 30
0.0
 40
0.0025
  1
12 cm
  7
ARIAL
 50
0.0
 41
0.85
 51
0.0
100
AcDbText
  0
TEXT
  5
185
100
AcDbEntity
  8
LAYER_1
 62
     2
370
    35
100
AcDbText
 10
-7.61295263
 20
-7.6180518
 30
0.0
 40
0.0025
  1
12.5 cm
  7
ARIAL
 50
0.0
 41
0.85
 51
0.0
100
AcDbText
  0
TEXT
  5
186
100
AcDbEntity
  8
LAYER_1
 62
     2
370
    35
100
AcDbText
 10
-7.59790263
 20
-7.6180518
 30
0.0
 40
0.0025
  1
15 cm
  7
ARIAL
 50
0.0
 41
0.85
 51
0.0
100
AcDbText
  0
TEXT
  5
187
100
AcDbEntity
  8
LAYER_1
 62
     2
370
    35
100
AcDbText
 10
-7.57030263
 20
-7.6180518
 30
0.0
 40
0.0025
  1
18 cm
  7
ARIAL
 50
0.0
 41
0.85
 51
0.0
100
AcDbText
  0
TEXT
  5
188
100
AcDbEntity
  8
LAYER_1
 62
     2
370
    35
100
AcDbText
 10
-7.55650263
 20
-7.6180518
 30
0.0
 40
0.0025
  1
20 cm
  7
ARIAL
 50
0.0
 41
0.85
 51
0.0
100
AcDbText
  0
TEXT
  5
189
100
AcDbEntity
  8
LAYER_1
 62
     2
370
    35
100
AcDbText
 10
-7.58535263
 20
-7.6180518
 30
0.0
 40
0.0025
  1
17.5 cm
  7
ARIAL
 50
0.0
 41
0.85
 51
0.0
100
AcDbText
  0
TEXT
  5
18A
100
AcDbEntity
  8
LAYER_1
 62
     2
370
    18
100
AcDbText
 10
-7.54270263
 20
-7.6180518
 30
0.0
 40
0.0025
  1
Breite cm
  7
ARIAL
 50
0.0
 41
0.85
 51
0.0
100
AcDbText
  0
TEXT
  5
18B
100
AcDbEntity
  8
LAYER_1
 62
     2
370
    18
100
AcDbText
 10
-7.52415263
 20
-7.6180518
 30
0.0
 40
0.0025
  1
Anz. m'
  7
ARIAL
 50
0.0
 41
0.85
 51
0.0
100
AcDbText
  0
TEXT
  5
18C
100
AcDbEntity
  8
LAYER_1
 62
     2
370
    35
100
AcDbText
 10
-7.50760263
 20
-7.6180518
 30
0.0
 40
0.0025
  1
Bemerkung
  7
ARIAL
 50
0.0
 41
0.85
 51
0.0
100
AcDbText
  0
TEXT
  5
18D
100
AcDbEntity
  8
LAYER_1
 62
     2
370
    18
100
AcDbText
 10
-7.66060263
 20
-7.6230518
 30
0.0
 40
0.0025
  1
Achtung: immer im Minimum 2 bis 2.5 cm Mehrbreite bestellen als effektive Wandbreite
  7
ARIAL
 50
0.0
 41
0.8
 51
0.0
100
AcDbText
  0
TEXT
  5
18E
100
AcDbEntity
  8
LAYER_1
 62
     2
370
    18
100
AcDbText
 10
-7.66060263
 20
-7.6279018
 30
0.0
 40
0.0025
  1
TNA-
  7
ARIAL
 50
0.0
 41
0.9
 51
0.0
100
AcDbText
  0
TEXT
  5
18F
100
AcDbEntity
  8
LAYER_1
 62
     2
370
    18
100
AcDbText
 10
-7.64085263
 20
-7.6279018
 30
0.0
 40
0.0025
  1
schwarz
  7
ARIAL
 50
0.0
 41
0.9
 51
0.0
100
AcDbText
  0
TEXT
  5
190
100
AcDbEntity
  8
LAYER_1
 62
     2
370
    18
100
AcDbText
 10
-7.66060263
 20
-7.6331018
 30
0.0
 40
0.0025
  1
TKG 3-
  7
ARIAL
 50
0.0
 41
0.9
 51
0.0
100
AcDbText
  0
TEXT
  5
191
100
AcDbEntity
  8
LAYER_1
 62
     2
370
    18
100
AcDbText
 10
-7.63910263
 20
-7.6331018
 30
0.0
 40
0.0025
  1
braun
  7
ARIAL
 50
0.0
 41
0.9
 51
0.0
100
AcDbText
  0
TEXT
  5
192
100
AcDbEntity
  8
LAYER_1
 62
     2
370
    18
100
AcDbText
 10
-7.66060263
 20
-7.6378018
 30
0.0
 40
0.0025
  1
TKG 5-
  7
ARIAL
 50
0.0
 41
0.9
 51
0.0
100
AcDbText
  0
TEXT
  5
193
100
AcDbEntity
  8
LAYER_1
 62
     2
370
    18
100
AcDbText
 10
-7.63910263
 20
-7.6378018
 30
0.0
 40
0.0025
  1
braun
  7
ARIAL
 50
0.0
 41
0.9
 51
0.0
100
AcDbText
  0
TEXT
  5
194
100
AcDbEntity
  8
LAYER_1
 62
     2
370
    18
100
AcDbText
 10
-7.66060263
 20
-7.6425018
 30
0.0
 40
0.0025
  1
TKG 10-
  7
ARIAL
 50
0.0
 41
0.9
 51
0.0
100
AcDbText
  0
TEXT
  5
195
100
AcDbEntity
  8
LAYER_1
 62
     2
370
    18
100
AcDbText
 10
-7.63910263
 20
-7.6425018
 30
0.0
 40
0.0025
  1
braun
  7
ARIAL
 50
0.0
 41
0.9
 51
0.0
100
AcDbText
  0
ENDSEC
  0
SECTION
  2
OBJECTS
  0
DICTIONARY
  5
1
100
AcDbDictionary
  3
ACAD_GROUP
350
2
  3
ACAD_MLINESTYLE
350
3
  0
DICTIONARY
  5
2
102
{CDWK_REACTORS
330
1
102
}
100
AcDbDictionary
  0
DICTIONARY
  5
3
102
{CDWK_REACTORS
330
1
102
}
100
AcDbDictionary
  3
STANDARD
350
4
  0
MLINESTYLE
  5
4
102
{CDWK_REACTORS
330
3
102
}
100
AcDbMlineStyle
  2
STANDARD
 70
     0
  3

 62
     0
 51
90.0
 52
90.0
 71
     2
 49
0.5
 62
   256
  6
BYLAYER
 49
-0.5
 62
   256
  6
BYLAYER
  0
ENDSEC
  0
EOF
