  0
SECTION
  2
HEADER
  9
$ACADVER
  1
AC1014
  9
$DWGCODEPAGE
  3
ANSI_1252
  9
$INSBASE
 10
0.0
 20
0.0
 30
0.0
  9
$EXTMIN
 10
-7.67790263
 20
-7.6779027
  9
$EXTMAX
 10
-7.46790263
 20
-7.3809027
  9
$LIMMIN
 10
-7.67790263
 20
-7.6779027
  9
$LIMMAX
 10
-7.46790263
 20
-7.3809027
  9
$ORTHOMODE
 70
     0
  9
$REGENMODE
 70
     1
  9
$FILLMODE
 70
     1
  9
$QTEXTMODE
 70
     0
  9
$MIRRTEXT
 70
     1
  9
$DRAGMODE
 70
     2
  9
$LTSCALE
 40
0.001
  9
$OSMODE
 70
     0
  9
$ATTMODE
 70
     1
  9
$TEXTSIZE
 40
3.5
  9
$TRACEWID
 40
1.0
  9
$TEXTSTYLE
  7
STANDARD
  9
$CLAYER
  8
0
  9
$CELTYPE
  6
BYLAYER
  9
$CECOLOR
 62
   256
  9
$DIMSCALE
 40
1.0
  9
$DIMASZ
 40
4.0
  9
$DIMEXO
 40
5.0
  9
$DIMDLI
 40
10.0
  9
$DIMRND
 40
0.0
  9
$DIMDLE
 40
2.0
  9
$DIMEXE
 40
2.0
  9
$DIMTP
 40
0.0
  9
$DIMTM
 40
0.0
  9
$DIMTXT
 40
2.5
  9
$DIMCEN
 40
1.5
  9
$DIMTSZ
 40
0.0
  9
$DIMTOL
 70
     0
  9
$DIMLIM
 70
     0
  9
$DIMTIH
 70
     1
  9
$DIMTOH
 70
     0
  9
$DIMSE1
 70
     0
  9
$DIMSE2
 70
     0
  9
$DIMTAD
 70
     1
  9
$DIMZIN
 70
     8
  9
$DIMBLK
  1

  9
$DIMASO
 70
     1
  9
$DIMSHO
 70
     1
  9
$DIMPOST
  1

  9
$DIMAPOST
  1

  9
$DIMALT
 70
     0
  9
$DIMALTD
 70
     2
  9
$DIMALTF
 40
25.4
  9
$DIMLFAC
 40
1.0
  9
$DIMTOFL
 70
     0
  9
$DIMTVP
 40
0.0
  9
$DIMTIX
 70
     0
  9
$DIMSOXD
 70
     0
  9
$DIMSAH
 70
     0
  9
$DIMBLK1
  1

  9
$DIMBLK2
  1

  9
$DIMSTYLE
  2
*UNNAMED
  9
$DIMCLRD
 70
     9
  9
$DIMCLRE
 70
     9
  9
$DIMCLRT
 70
     7
  9
$DIMTFAC
 40
1.0
  9
$DIMGAP
 40
0.09
  9
$DIMUNIT
 70
     2
  9
$LUNITS
 70
     2
  9
$LUPREC
 70
     6
  9
$AXISMODE
 70
     0
  9
$AXISUNIT
 10
0.0
 20
0.0
  9
$SKETCHINC
 40
0.1
  9
$FILLETRAD
 40
0.0
  9
$AUNITS
 70
     0
  9
$AUPREC
 70
     0
  9
$MENU
  1
ACAD
  9
$ELEVATION
 40
0.0
  9
$PELEVATION
 40
0.0
  9
$THICKNESS
 40
0.0
  9
$LIMCHECK
 70
     0
  9
$BLIPMODE
 70
     1
  9
$CHAMFERA
 40
0.0
  9
$CHAMFERB
 40
0.0
  9
$SKPOLY
 70
     1
  9
$TDCREATE
 40
2458728.0000000000
  9
$TDUPDATE
 40
2458728.0000000000
  9
$TDINDWG
 40
0.0
  9
$TDUSRTIMER
 40
0.0
  9
$USRTIMER
 70
     1
  9
$ANGBASE
 50
0.0
  9
$ANGDIR
 70
     0
  9
$PDMODE
 70
     0
  9
$PDSIZE
 40
0.0
  9
$PLINEWID
 40
0.0
  9
$COORDS
 70
     2
  9
$SPLFRAME
 70
     0
  9
$SPLINETYPE
 70
     6
  9
$SPLINESEGS
 70
     8
  9
$ATTDIA
 70
     1
  9
$ATTREQ
 70
     1
  9
$HANDLING
 70
     1
  9
$HANDSEED
  5
     139
  9
$SURFTAB1
 70
     6
  9
$SURFTAB2
 70
     6
  9
$SURFTYPE
 70
     6
  9
$SURFU
 70
     6
  9
$SURFV
 70
     6
  9
$UCSNAME
  2

  9
$UCSORG
 10
0.0
 20
0.0
 30
0.0
  9
$UCSXDIR
 10
1.0
 20
0.0
 30
0.0
  9
$UCSYDIR
 10
0.0
 20
1.0
 30
0.0
  9
$PUCSNAME
  2

  9
$PUCSORG
 10
0.0
 20
0.0
 30
0.0
  9
$PUCSXDIR
 10
1.0
 20
0.0
 30
0.0
  9
$PUCSYDIR
 10
0.0
 20
1.0
 30
0.0
  9
$USERI1
 70
     0
  9
$USERI2
 70
     0
  9
$USERI3
 70
     0
  9
$USERI4
 70
     0
  9
$USERI5
 70
     0
  9
$USERR1
 40
0.0
  9
$USERR2
 40
0.0
  9
$USERR3
 40
0.0
  9
$USERR4
 40
0.0
  9
$USERR5
 40
0.0
  9
$WORLDVIEW
 70
     1
  9
$SHADEDGE
 70
     3
  9
$SHADEDIF
 70
    70
  9
$TILEMODE
 70
     1
  9
$MAXACTVP
 70
    16
  9
$PINSBASE
 10
0.0
 20
0.0
 30
0.0
  9
$PLIMCHECK
 70
     0
  9
$PEXTMIN
 10
1.0000000000000E+20
 20
1.0000000000000E+20
 30
1.0000000000000E+20
  9
$PEXTMAX
 10
-1.0000000000000E+20
 20
-1.0000000000000E+20
 30
-1.0000000000000E+20
  9
$PLIMMIN
 10
0.0
 20
0.0
  9
$UNITMODE
 70
     0
  9
$VISRETAIN
 70
     0
  9
$MEASUREMENT
 70
     1
  0
ENDSEC
  0
SECTION
  2
TABLES
  0
TABLE
  2
VPORT
  5
5
100
AcDbSymbolTable
 70
     1
  0
ENDTAB
  0
TABLE
  2
STYLE
  5
6
100
AcDbSymbolTable
 70
     3
  0
STYLE
  5
7
100
AcDbSymbolTableRecord
100
AcDbTextStyleTableRecord
  2
STANDARD
 70
     0
 40
0.0
 41
1.0
 50
0.0
 71
     0
 42
3.5
  3
MONOTXT
  4

  0
STYLE
  5
8
100
AcDbSymbolTableRecord
100
AcDbTextStyleTableRecord
  2
SYMAP
 70
     0
 40
0.0
 41
1.0
 50
0.0
 71
     0
 42
3.5
  3
SYMAP
  4

  0
STYLE
  5
9
100
AcDbSymbolTableRecord
100
AcDbTextStyleTableRecord
  2
CADWORK1
 70
     0
 40
0.0
 41
1.0
 50
0.0
 71
     0
 42
3.5
  3
MONOTXT
  4

  0
STYLE
  5
A
100
AcDbSymbolTableRecord
100
AcDbTextStyleTableRecord
  2
MONOTXT
 70
     0
 40
0.0
 41
1.0
 50
0.0
 71
     0
 42
3.5
  3
MONOTXT
  4

  0
STYLE
  5
B
100
AcDbSymbolTableRecord
100
AcDbTextStyleTableRecord
  2
ARIAL
 70
     0
 40
0.0
 41
1.0
 50
0.0
 71
     0
 42
3.5
  3

  4

1001
ACAD
1000
Arial
1071
        0
  0
ENDTAB
  0
TABLE
  2
LTYPE
  5
C
100
AcDbSymbolTable
 70
    10
  0
LTYPE
  5
D
100
AcDbSymbolTableRecord
100
AcDbLinetypeTableRecord
  2
BYBLOCK
 70
    64
  3

 72
    65
 73
     0
 40
0.0
  0
LTYPE
  5
E
100
AcDbSymbolTableRecord
100
AcDbLinetypeTableRecord
  2
BYLAYER
 70
    64
  3

 72
    65
 73
     0
 40
0.0
  0
LTYPE
  5
F
100
AcDbSymbolTableRecord
100
AcDbLinetypeTableRecord
  2
CONTINUOUS
 70
    64
  3
Solid line
 72
    65
 73
     0
 40
0.0
  0
LTYPE
  5
10
100
AcDbSymbolTableRecord
100
AcDbLinetypeTableRecord
  2
CADWORK_13
 70
    64
  3
13 =======================================
 72
    65
 73
     2
 40
4.0
 49
2.0
 74
     0
 49
-2.0
 74
     0
  0
LTYPE
  5
11
100
AcDbSymbolTableRecord
100
AcDbLinetypeTableRecord
  2
DAL
 70
    64
  3
Solid line (for MAPS)
 72
    65
 73
     0
 40
0.0
  0
LTYPE
  5
12
100
AcDbSymbolTableRecord
100
AcDbLinetypeTableRecord
  2
MUR
 70
    64
  3
Solid line (for MAPS)
 72
    65
 73
     0
 40
0.0
  0
LTYPE
  5
13
100
AcDbSymbolTableRecord
100
AcDbLinetypeTableRecord
  2
SOM
 70
    64
  3
Solid line (for MAPS)
 72
    65
 73
     0
 40
0.0
  0
LTYPE
  5
14
100
AcDbSymbolTableRecord
100
AcDbLinetypeTableRecord
  2
COL
 70
    64
  3
Solid line (for MAPS)
 72
    65
 73
     0
 40
0.0
  0
LTYPE
  5
15
100
AcDbSymbolTableRecord
100
AcDbLinetypeTableRecord
  2
LGN
 70
    64
  3
Solid line (for MAPS)
 72
    65
 73
     0
 40
0.0
  0
LTYPE
  5
16
100
AcDbSymbolTableRecord
100
AcDbLinetypeTableRecord
  2
PNT
 70
    64
  3
Solid line (for MAPS)
 72
    65
 73
     0
 40
0.0
  0
ENDTAB
  0
TABLE
  2
LAYER
  5
17
100
AcDbSymbolTable
 70
     1
  0
LAYER
  5
18
100
AcDbSymbolTableRecord
100
AcDbLayerTableRecord
  2
0
 70
     0
 62
     1
  6
CONTINUOUS
370
    -3
  0
LAYER
  5
19
100
AcDbSymbolTableRecord
100
AcDbLayerTableRecord
  2
LAYER_1
 70
     0
 62
     7
  6
CONTINUOUS
370
    -3
  0
ENDTAB
  0
TABLE
  2
VIEW
  5
1A
100
AcDbSymbolTable
 70
     0
  0
ENDTAB
  0
TABLE
  2
UCS
  5
1B
100
AcDbSymbolTable
 70
     0
  0
ENDTAB
  0
TABLE
  2
APPID
  5
1C
100
AcDbSymbolTable
 70
     1
  0
APPID
  5
1D
100
AcDbSymbolTableRecord
100
AcDbRegAppTableRecord
  2
ACAD
 70
     0
  0
ENDTAB
  0
TABLE
  2
DIMSTYLE
  5
1E
100
AcDbSymbolTable
 70
     0
  0
ENDTAB
  0
TABLE
  2
BLOCK_RECORD
  5
1F
100
AcDbSymbolTable
 70
     0
  0
BLOCK_RECORD
  5
20
100
AcDbSymbolTableRecord
100
AcDbBlockTableRecord
  2
*MODEL_SPACE
  0
BLOCK_RECORD
  5
21
100
AcDbSymbolTableRecord
100
AcDbBlockTableRecord
  2
*PAPER_SPACE
  0
BLOCK_RECORD
  5
22
100
AcDbSymbolTableRecord
100
AcDbBlockTableRecord
  2
CDWK_EXTR_0
  0
BLOCK_RECORD
  5
23
100
AcDbSymbolTableRecord
100
AcDbBlockTableRecord
  2
CDWK_EXTR_1D
  0
BLOCK_RECORD
  5
24
100
AcDbSymbolTableRecord
100
AcDbBlockTableRecord
  2
CDWK_EXTR_1G
  0
BLOCK_RECORD
  5
25
100
AcDbSymbolTableRecord
100
AcDbBlockTableRecord
  2
CDWK_EXTR_2
  0
BLOCK_RECORD
  5
26
100
AcDbSymbolTableRecord
100
AcDbBlockTableRecord
  2
CDWK_EXTR_3
  0
BLOCK_RECORD
  5
27
100
AcDbSymbolTableRecord
100
AcDbBlockTableRecord
  2
CDWK_EXTR_4
  0
BLOCK_RECORD
  5
28
100
AcDbSymbolTableRecord
100
AcDbBlockTableRecord
  2
CDWK_PTTYP0
  0
ENDTAB
  0
ENDSEC
  0
SECTION
  2
BLOCKS
  0
BLOCK
  5
29
100
AcDbEntity
  8
0
100
AcDbBlockBegin
  2
*MODEL_SPACE
 70
     0
 10
0.0
 20
0.0
 30
0.0
  3
*MODEL_SPACE
  1

  0
ENDBLK
  5
2A
100
AcDbEntity
100
AcDbBlockEnd
  0
BLOCK
  5
2B
100
AcDbEntity
  8
0
100
AcDbBlockBegin
  2
*PAPER_SPACE
 70
     0
 10
0.0
 20
0.0
 30
0.0
  3
*PAPER_SPACE
  1

  0
ENDBLK
  5
2C
100
AcDbEntity
100
AcDbBlockEnd
  0
BLOCK
  5
2D
100
AcDbEntity
  8
0
100
AcDbBlockBegin
  2
CDWK_EXTR_0
 70
     0
 10
0.0
 20
0.0
 30
0.0
  3
CDWK_EXTR_0
  1

  4
Cadwork line-extremity
  0
LINE
  5
2E
100
AcDbEntity
  8
0
 62
     0
370
    -2
100
AcDbLine
 10
0.0
 20
0.0
 30
0.0
 11
2.0
 21
0.5
 31
0.0
  0
LINE
  5
2F
100
AcDbEntity
  8
0
 62
     0
370
    -2
100
AcDbLine
 10
0.0
 20
0.0
 30
0.0
 11
2.0
 21
-0.5
 31
0.0
  0
LINE
  5
30
100
AcDbEntity
  8
0
 62
     0
370
    -2
100
AcDbLine
 10
2.0
 20
0.5
 30
0.0
 11
2.0
 21
-0.5
 31
0.0
  0
ENDBLK
  5
31
100
AcDbEntity
100
AcDbBlockEnd
  0
BLOCK
  5
32
100
AcDbEntity
  8
0
100
AcDbBlockBegin
  2
CDWK_EXTR_1D
 70
     0
 10
0.0
 20
0.0
 30
0.0
  3
CDWK_EXTR_1D
  1

  4
Cadwork line-extremity
  0
LINE
  5
33
100
AcDbEntity
  8
0
 62
     0
370
    -2
100
AcDbLine
 10
0.0
 20
0.0
 30
0.0
 11
0.0
 21
1.0
 31
0.0
  0
LINE
  5
34
100
AcDbEntity
  8
0
 62
     0
370
    -2
100
AcDbLine
 10
0.0
 20
1.0
 30
0.0
 11
0.5
 21
1.5
 31
0.0
  0
LINE
  5
35
100
AcDbEntity
  8
0
 62
     0
370
    -2
100
AcDbLine
 10
0.5
 20
1.5
 30
0.0
 11
1.5
 21
1.5
 31
0.0
  0
ENDBLK
  5
36
100
AcDbEntity
100
AcDbBlockEnd
  0
BLOCK
  5
37
100
AcDbEntity
  8
0
100
AcDbBlockBegin
  2
CDWK_EXTR_1G
 70
     0
 10
0.0
 20
0.0
 30
0.0
  3
CDWK_EXTR_1G
  1

  4
Cadwork line-extremity
  0
LINE
  5
38
100
AcDbEntity
  8
0
 62
     0
370
    -2
100
AcDbLine
 10
0.0
 20
0.0
 30
0.0
 11
0.0
 21
-1.0
 31
0.0
  0
LINE
  5
39
100
AcDbEntity
  8
0
 62
     0
370
    -2
100
AcDbLine
 10
0.0
 20
-1.0
 30
0.0
 11
0.5
 21
-1.5
 31
0.0
  0
LINE
  5
3A
100
AcDbEntity
  8
0
 62
     0
370
    -2
100
AcDbLine
 10
0.5
 20
-1.5
 30
0.0
 11
1.5
 21
-1.5
 31
0.0
  0
ENDBLK
  5
3B
100
AcDbEntity
100
AcDbBlockEnd
  0
BLOCK
  5
3C
100
AcDbEntity
  8
0
100
AcDbBlockBegin
  2
CDWK_EXTR_2
 70
     0
 10
0.0
 20
0.0
 30
0.0
  3
CDWK_EXTR_2
  1

  4
Cadwork line-extremity
  0
SOLID
  5
3D
100
AcDbEntity
  8
0
 62
     0
100
AcDbTrace
 10
0.0
 20
0.0
 11
2.0
 21
0.5
 12
2.0
 22
-0.5
 13
2.0
 23
-0.5
  0
ENDBLK
  5
3E
100
AcDbEntity
100
AcDbBlockEnd
  0
BLOCK
  5
3F
100
AcDbEntity
  8
0
100
AcDbBlockBegin
  2
CDWK_EXTR_3
 70
     0
 10
0.0
 20
0.0
 30
0.0
  3
CDWK_EXTR_3
  1

  4
Cadwork line-extremity
  0
SOLID
  5
40
100
AcDbEntity
  8
0
 62
     0
100
AcDbTrace
 10
0.0
 20
0.0
 11
2.0
 21
0.5
 12
2.0
 22
-0.5
 13
2.0
 23
-0.5
  0
LINE
  5
41
100
AcDbEntity
  8
0
 62
     0
370
    -2
100
AcDbLine
 10
0.0
 20
1.0
 30
0.0
 11
0.0
 21
-1.0
 31
0.0
  0
ENDBLK
  5
42
100
AcDbEntity
100
AcDbBlockEnd
  0
BLOCK
  5
43
100
AcDbEntity
  8
0
100
AcDbBlockBegin
  2
CDWK_EXTR_4
 70
     0
 10
0.0
 20
0.0
 30
0.0
  3
CDWK_EXTR_4
  1

  4
Cadwork line-extremity
  0
HATCH
  5
44
100
AcDbEntity
  8
0
 62
     0
370
    -2
100
AcDbHatch
 10
0.0
 20
0.0
 30
0.0
210
0.0
220
0.0
230
1.0
  2
SOLID
 70
     1
 71
     0
 91
        1
 92
        1
 93
        1
 72
     2
 10
0.0
 20
0.0
 40
0.5
 50
0.0
 51
360.0
 73
     1
 97
        0
 75
     0
 76
     1
 98
        1
 10
0.0
 20
0.0
  0
ENDBLK
  5
45
100
AcDbEntity
100
AcDbBlockEnd
  0
BLOCK
  5
46
100
AcDbEntity
  8
0
100
AcDbBlockBegin
  2
CDWK_PTTYP0
 70
     0
 10
0.0
 20
0.0
 30
0.0
  3
CDWK_PTTYP0
  1

  4
Cadwork point
  0
POINT
  5
47
100
AcDbEntity
  8
0
 62
     0
100
AcDbPoint
 10
0.0
 20
0.0
 30
0.0
  0
ENDBLK
  5
48
100
AcDbEntity
100
AcDbBlockEnd
  0
ENDSEC
  0
SECTION
  2
ENTITIES
  0
LWPOLYLINE
  5
49
102
{ACAD_REACTORS
330
4A
102
}
100
AcDbEntity
  8
LAYER_1
 62
     1
  6
CONTINUOUS
370
    -3
100
AcDbPolyline
 90
        4
 70
     1
 43
0.0
 10
-7.57510263
 20
-7.5734027
 10
-7.48810263
 20
-7.5734027
 10
-7.48810263
 20
-7.5784027
 10
-7.57510263
 20
-7.5784027
  0
HATCH
  5
4A
100
AcDbEntity
  8
LAYER_1
 62
   253
  6
CONTINUOUS
100
AcDbHatch
 10
0.0
 20
0.0
 30
0.0
210
0.0
220
0.0
230
1.0
  2
SOLID
 70
     1
 71
     1
 91
        1
 92
        7
 72
     0
 73
     1
 93
        4
 10
-7.57510263
 20
-7.5734027
 10
-7.48810263
 20
-7.5734027
 10
-7.48810263
 20
-7.5784027
 10
-7.57510263
 20
-7.5784027
 97
        1
330
49
 75
     0
 76
     2
 47
0.775229
 98
        1
 10
0.0
 20
0.0
  0
LWPOLYLINE
  5
4B
102
{ACAD_REACTORS
330
4C
102
}
100
AcDbEntity
  8
LAYER_1
 62
     1
  6
CONTINUOUS
370
    -3
100
AcDbPolyline
 90
        4
 70
     1
 43
0.0
 10
-7.57510263
 20
-7.6084027
 10
-7.48810263
 20
-7.6084027
 10
-7.48810263
 20
-7.6134027
 10
-7.57510263
 20
-7.6134027
  0
HATCH
  5
4C
100
AcDbEntity
  8
LAYER_1
 62
   253
  6
CONTINUOUS
100
AcDbHatch
 10
0.0
 20
0.0
 30
0.0
210
0.0
220
0.0
230
1.0
  2
SOLID
 70
     1
 71
     1
 91
        1
 92
        7
 72
     0
 73
     1
 93
        4
 10
-7.57510263
 20
-7.6084027
 10
-7.48810263
 20
-7.6084027
 10
-7.48810263
 20
-7.6134027
 10
-7.57510263
 20
-7.6134027
 97
        1
330
4B
 75
     0
 76
     2
 47
0.775229
 98
        1
 10
0.0
 20
0.0
  0
LWPOLYLINE
  5
4D
102
{ACAD_REACTORS
330
4E
102
}
100
AcDbEntity
  8
LAYER_1
 62
     1
  6
CONTINUOUS
370
    -3
100
AcDbPolyline
 90
        4
 70
     1
 43
0.0
 10
-7.66210263
 20
-7.6084027
 10
-7.57510263
 20
-7.6084027
 10
-7.57510263
 20
-7.6134027
 10
-7.66210263
 20
-7.6134027
  0
HATCH
  5
4E
100
AcDbEntity
  8
LAYER_1
 62
   253
  6
CONTINUOUS
100
AcDbHatch
 10
0.0
 20
0.0
 30
0.0
210
0.0
220
0.0
230
1.0
  2
SOLID
 70
     1
 71
     1
 91
        1
 92
        7
 72
     0
 73
     1
 93
        4
 10
-7.66210263
 20
-7.6084027
 10
-7.57510263
 20
-7.6084027
 10
-7.57510263
 20
-7.6134027
 10
-7.66210263
 20
-7.6134027
 97
        1
330
4D
 75
     0
 76
     2
 47
0.775229
 98
        1
 10
0.0
 20
0.0
  0
LWPOLYLINE
  5
4F
100
AcDbEntity
  8
LAYER_1
 62
     1
  6
CONTINUOUS
370
    -3
100
AcDbPolyline
 90
        5
 70
     0
 43
0.0
 10
-7.66210263
 20
-7.6634027
 10
-7.48810263
 20
-7.6634027
 10
-7.48810263
 20
-7.4344027
 10
-7.66210263
 20
-7.4344027
 10
-7.66210263
 20
-7.6634027
  0
LINE
  5
50
100
AcDbEntity
  8
LAYER_1
 62
     1
  6
CONTINUOUS
370
    -3
100
AcDbLine
 10
-7.66210263
 20
-7.6584027
 30
0.0
 11
-7.48810263
 21
-7.6584027
 31
0.0
  0
LINE
  5
51
100
AcDbEntity
  8
LAYER_1
 62
     1
  6
CONTINUOUS
370
    -3
100
AcDbLine
 10
-7.66210263
 20
-7.4404027
 30
0.0
 11
-7.48810263
 21
-7.4404027
 31
0.0
  0
LINE
  5
52
100
AcDbEntity
  8
LAYER_1
 62
     1
  6
CONTINUOUS
370
    -3
100
AcDbLine
 10
-7.66210263
 20
-7.4514027
 30
0.0
 11
-7.48810263
 21
-7.4514027
 31
0.0
  0
LINE
  5
53
100
AcDbEntity
  8
LAYER_1
 62
     1
  6
CONTINUOUS
370
    -3
100
AcDbLine
 10
-7.66210263
 20
-7.4724027
 30
0.0
 11
-7.48810263
 21
-7.4724027
 31
0.0
  0
LINE
  5
54
100
AcDbEntity
  8
LAYER_1
 62
     1
  6
CONTINUOUS
370
    -3
100
AcDbLine
 10
-7.66210263
 20
-7.4934027
 30
0.0
 11
-7.48810263
 21
-7.4934027
 31
0.0
  0
LINE
  5
55
100
AcDbEntity
  8
LAYER_1
 62
     1
  6
CONTINUOUS
370
    -3
100
AcDbLine
 10
-7.66210263
 20
-7.5034027
 30
0.0
 11
-7.48810263
 21
-7.5034027
 31
0.0
  0
LINE
  5
56
100
AcDbEntity
  8
LAYER_1
 62
     1
  6
CONTINUOUS
370
    -3
100
AcDbLine
 10
-7.66210263
 20
-7.5084027
 30
0.0
 11
-7.48810263
 21
-7.5084027
 31
0.0
  0
LINE
  5
57
100
AcDbEntity
  8
LAYER_1
 62
     1
  6
CONTINUOUS
370
    -3
100
AcDbLine
 10
-7.66210263
 20
-7.5134027
 30
0.0
 11
-7.48810263
 21
-7.5134027
 31
0.0
  0
LINE
  5
58
100
AcDbEntity
  8
LAYER_1
 62
     1
  6
CONTINUOUS
370
    -3
100
AcDbLine
 10
-7.66210263
 20
-7.5184027
 30
0.0
 11
-7.48810263
 21
-7.5184027
 31
0.0
  0
LINE
  5
59
100
AcDbEntity
  8
LAYER_1
 62
     1
  6
CONTINUOUS
370
    -3
100
AcDbLine
 10
-7.66210263
 20
-7.5234027
 30
0.0
 11
-7.48810263
 21
-7.5234027
 31
0.0
  0
LINE
  5
5A
100
AcDbEntity
  8
LAYER_1
 62
     1
  6
CONTINUOUS
370
    -3
100
AcDbLine
 10
-7.66210263
 20
-7.5284027
 30
0.0
 11
-7.48810263
 21
-7.5284027
 31
0.0
  0
LINE
  5
5B
100
AcDbEntity
  8
LAYER_1
 62
     1
  6
CONTINUOUS
370
    -3
100
AcDbLine
 10
-7.66210263
 20
-7.5334027
 30
0.0
 11
-7.48810263
 21
-7.5334027
 31
0.0
  0
LINE
  5
5C
100
AcDbEntity
  8
LAYER_1
 62
     1
  6
CONTINUOUS
370
    -3
100
AcDbLine
 10
-7.66210263
 20
-7.5384027
 30
0.0
 11
-7.48810263
 21
-7.5384027
 31
0.0
  0
LINE
  5
5D
100
AcDbEntity
  8
LAYER_1
 62
     1
  6
CONTINUOUS
370
    -3
100
AcDbLine
 10
-7.66210263
 20
-7.5434027
 30
0.0
 11
-7.48810263
 21
-7.5434027
 31
0.0
  0
LINE
  5
5E
100
AcDbEntity
  8
LAYER_1
 62
     1
  6
CONTINUOUS
370
    -3
100
AcDbLine
 10
-7.66210263
 20
-7.5484027
 30
0.0
 11
-7.48810263
 21
-7.5484027
 31
0.0
  0
LINE
  5
5F
100
AcDbEntity
  8
LAYER_1
 62
     1
  6
CONTINUOUS
370
    -3
100
AcDbLine
 10
-7.66210263
 20
-7.5534027
 30
0.0
 11
-7.48810263
 21
-7.5534027
 31
0.0
  0
LINE
  5
60
100
AcDbEntity
  8
LAYER_1
 62
     1
  6
CONTINUOUS
370
    -3
100
AcDbLine
 10
-7.66210263
 20
-7.5584027
 30
0.0
 11
-7.48810263
 21
-7.5584027
 31
0.0
  0
LINE
  5
61
100
AcDbEntity
  8
LAYER_1
 62
     1
  6
CONTINUOUS
370
    -3
100
AcDbLine
 10
-7.66210263
 20
-7.5634027
 30
0.0
 11
-7.48810263
 21
-7.5634027
 31
0.0
  0
LINE
  5
62
100
AcDbEntity
  8
LAYER_1
 62
     1
  6
CONTINUOUS
370
    -3
100
AcDbLine
 10
-7.66210263
 20
-7.5684027
 30
0.0
 11
-7.48810263
 21
-7.5684027
 31
0.0
  0
LINE
  5
63
100
AcDbEntity
  8
LAYER_1
 62
     1
  6
CONTINUOUS
370
    -3
100
AcDbLine
 10
-7.66210263
 20
-7.5734027
 30
0.0
 11
-7.48810263
 21
-7.5734027
 31
0.0
  0
LINE
  5
64
100
AcDbEntity
  8
LAYER_1
 62
     1
  6
CONTINUOUS
370
    -3
100
AcDbLine
 10
-7.66210263
 20
-7.5784027
 30
0.0
 11
-7.48810263
 21
-7.5784027
 31
0.0
  0
LINE
  5
65
100
AcDbEntity
  8
LAYER_1
 62
     1
  6
CONTINUOUS
370
    -3
100
AcDbLine
 10
-7.66210263
 20
-7.6084027
 30
0.0
 11
-7.48810263
 21
-7.6084027
 31
0.0
  0
LINE
  5
66
100
AcDbEntity
  8
LAYER_1
 62
     1
  6
CONTINUOUS
370
    -3
100
AcDbLine
 10
-7.66210263
 20
-7.6134027
 30
0.0
 11
-7.48810263
 21
-7.6134027
 31
0.0
  0
LINE
  5
67
100
AcDbEntity
  8
LAYER_1
 62
     1
  6
CONTINUOUS
370
    -3
100
AcDbLine
 10
-7.57510263
 20
-7.6584027
 30
0.0
 11
-7.57510263
 21
-7.4514027
 31
0.0
  0
LINE
  5
68
100
AcDbEntity
  8
LAYER_1
 62
     1
  6
CONTINUOUS
370
    -3
100
AcDbLine
 10
-7.66210263
 20
-7.5834027
 30
0.0
 11
-7.57510263
 21
-7.5834027
 31
0.0
  0
LINE
  5
69
100
AcDbEntity
  8
LAYER_1
 62
     1
  6
CONTINUOUS
370
    -3
100
AcDbLine
 10
-7.66210263
 20
-7.5884027
 30
0.0
 11
-7.57510263
 21
-7.5884027
 31
0.0
  0
LINE
  5
6A
100
AcDbEntity
  8
LAYER_1
 62
     1
  6
CONTINUOUS
370
    -3
100
AcDbLine
 10
-7.66210263
 20
-7.5934027
 30
0.0
 11
-7.57510263
 21
-7.5934027
 31
0.0
  0
LINE
  5
6B
100
AcDbEntity
  8
LAYER_1
 62
     1
  6
CONTINUOUS
370
    -3
100
AcDbLine
 10
-7.66210263
 20
-7.5984027
 30
0.0
 11
-7.57510263
 21
-7.5984027
 31
0.0
  0
LINE
  5
6C
100
AcDbEntity
  8
LAYER_1
 62
     1
  6
CONTINUOUS
370
    -3
100
AcDbLine
 10
-7.66210263
 20
-7.6034027
 30
0.0
 11
-7.57510263
 21
-7.6034027
 31
0.0
  0
LINE
  5
6D
100
AcDbEntity
  8
LAYER_1
 62
     1
  6
CONTINUOUS
370
    -3
100
AcDbLine
 10
-7.66210263
 20
-7.6184027
 30
0.0
 11
-7.57510263
 21
-7.6184027
 31
0.0
  0
LINE
  5
6E
100
AcDbEntity
  8
LAYER_1
 62
     1
  6
CONTINUOUS
370
    -3
100
AcDbLine
 10
-7.66210263
 20
-7.6234027
 30
0.0
 11
-7.57510263
 21
-7.6234027
 31
0.0
  0
LINE
  5
6F
100
AcDbEntity
  8
LAYER_1
 62
     1
  6
CONTINUOUS
370
    -3
100
AcDbLine
 10
-7.66210263
 20
-7.6284027
 30
0.0
 11
-7.57510263
 21
-7.6284027
 31
0.0
  0
LINE
  5
70
100
AcDbEntity
  8
LAYER_1
 62
     1
  6
CONTINUOUS
370
    -3
100
AcDbLine
 10
-7.66210263
 20
-7.6334027
 30
0.0
 11
-7.57510263
 21
-7.6334027
 31
0.0
  0
LINE
  5
71
100
AcDbEntity
  8
LAYER_1
 62
     1
  6
CONTINUOUS
370
    -3
100
AcDbLine
 10
-7.66210263
 20
-7.6384027
 30
0.0
 11
-7.57510263
 21
-7.6384027
 31
0.0
  0
LINE
  5
72
100
AcDbEntity
  8
LAYER_1
 62
     1
  6
CONTINUOUS
370
    -3
100
AcDbLine
 10
-7.66210263
 20
-7.6434027
 30
0.0
 11
-7.57510263
 21
-7.6434027
 31
0.0
  0
LINE
  5
73
100
AcDbEntity
  8
LAYER_1
 62
     1
  6
CONTINUOUS
370
    -3
100
AcDbLine
 10
-7.66210263
 20
-7.6484027
 30
0.0
 11
-7.57510263
 21
-7.6484027
 31
0.0
  0
LINE
  5
74
100
AcDbEntity
  8
LAYER_1
 62
     1
  6
CONTINUOUS
370
    -3
100
AcDbLine
 10
-7.66210263
 20
-7.6534027
 30
0.0
 11
-7.57510263
 21
-7.6534027
 31
0.0
  0
LWPOLYLINE
  5
75
100
AcDbEntity
  8
LAYER_1
 62
     7
  6
CONTINUOUS
370
    -3
100
AcDbPolyline
 90
        6
 70
     0
 43
0.0
 10
-7.66210263
 20
-7.4934027
 10
-7.48810263
 20
-7.4934027
 10
-7.48810263
 20
-7.6634027
 10
-7.66210263
 20
-7.6634027
 10
-7.66210263
 20
-7.4934027
 10
-7.48810263
 20
-7.4934027
  0
LINE
  5
76
100
AcDbEntity
  8
LAYER_1
 62
     7
  6
CONTINUOUS
370
    -3
100
AcDbLine
 10
-7.57510263
 20
-7.4934027
 30
0.0
 11
-7.57510263
 21
-7.6584027
 31
0.0
  0
LINE
  5
77
100
AcDbEntity
  8
LAYER_1
 62
     7
  6
CONTINUOUS
370
    -3
100
AcDbLine
 10
-7.48810263
 20
-7.6084027
 30
0.0
 11
-7.66210263
 21
-7.6084027
 31
0.0
  0
LINE
  5
78
100
AcDbEntity
  8
LAYER_1
 62
     7
  6
CONTINUOUS
370
    -3
100
AcDbLine
 10
-7.48810263
 20
-7.5734027
 30
0.0
 11
-7.57510263
 21
-7.5734027
 31
0.0
  0
LINE
  5
79
100
AcDbEntity
  8
LAYER_1
 62
     1
  6
CONTINUOUS
370
    -3
100
AcDbLine
 10
-7.66210263
 20
-7.4099027
 30
0.0
 11
-7.55460263
 21
-7.4099027
 31
0.0
  0
LINE
  5
7A
100
AcDbEntity
  8
LAYER_1
 62
     1
  6
CONTINUOUS
370
    -3
100
AcDbLine
 10
-7.55460263
 20
-7.4099027
 30
0.0
 11
-7.54610263
 21
-7.3969721
 31
0.0
  0
LINE
  5
7B
100
AcDbEntity
  8
LAYER_1
 62
     1
  6
CONTINUOUS
370
    -3
100
AcDbLine
 10
-7.65210263
 20
-7.5084027
 30
0.0
 11
-7.65210263
 21
-7.6084027
 31
0.0
  0
LINE
  5
7C
100
AcDbEntity
  8
LAYER_1
 62
     1
  6
CONTINUOUS
370
    -3
100
AcDbLine
 10
-7.65210263
 20
-7.6134027
 30
0.0
 11
-7.65210263
 21
-7.6584027
 31
0.0
  0
LINE
  5
7D
100
AcDbEntity
  8
LAYER_1
 62
     1
  6
CONTINUOUS
370
    -3
100
AcDbLine
 10
-7.62390263
 20
-7.5084027
 30
0.0
 11
-7.62390263
 21
-7.6084027
 31
0.0
  0
LINE
  5
7E
100
AcDbEntity
  8
LAYER_1
 62
     1
  6
CONTINUOUS
370
    -3
100
AcDbLine
 10
-7.61170263
 20
-7.5084027
 30
0.0
 11
-7.61170263
 21
-7.6084027
 31
0.0
  0
LINE
  5
7F
100
AcDbEntity
  8
LAYER_1
 62
     1
  6
CONTINUOUS
370
    -3
100
AcDbLine
 10
-7.59950263
 20
-7.5084027
 30
0.0
 11
-7.59950263
 21
-7.6084027
 31
0.0
  0
LINE
  5
80
100
AcDbEntity
  8
LAYER_1
 62
     1
  6
CONTINUOUS
370
    -3
100
AcDbLine
 10
-7.58730263
 20
-7.5084027
 30
0.0
 11
-7.58730263
 21
-7.6084027
 31
0.0
  0
LINE
  5
81
100
AcDbEntity
  8
LAYER_1
 62
     1
  6
CONTINUOUS
370
    -3
100
AcDbLine
 10
-7.58730263
 20
-7.6134027
 30
0.0
 11
-7.58730263
 21
-7.6584027
 31
0.0
  0
LINE
  5
82
100
AcDbEntity
  8
LAYER_1
 62
     1
  6
CONTINUOUS
370
    -3
100
AcDbLine
 10
-7.56510263
 20
-7.5084027
 30
0.0
 11
-7.56510263
 21
-7.5434027
 31
0.0
  0
LWPOLYLINE
  5
83
100
AcDbEntity
  8
LAYER_1
 62
     1
  6
CONTINUOUS
370
    -3
100
AcDbPolyline
 90
        5
 70
     0
 43
0.0
 10
-7.5809206
 20
-7.65992679
 10
-7.5789206
 20
-7.65992679
 10
-7.5789206
 20
-7.66192679
 10
-7.5809206
 20
-7.66192679
 10
-7.5809206
 20
-7.65992679
  0
LWPOLYLINE
  5
84
100
AcDbEntity
  8
LAYER_1
 62
     1
  6
CONTINUOUS
370
    -3
100
AcDbPolyline
 90
        5
 70
     0
 43
0.0
 10
-7.5656292
 20
-7.65992679
 10
-7.5636292
 20
-7.65992679
 10
-7.5636292
 20
-7.66192679
 10
-7.5656292
 20
-7.66192679
 10
-7.5656292
 20
-7.65992679
  0
LWPOLYLINE
  5
85
100
AcDbEntity
  8
LAYER_1
 62
     1
  6
CONTINUOUS
370
    -3
100
AcDbPolyline
 90
        5
 70
     0
 43
0.0
 10
-7.55446372
 20
-7.65992679
 10
-7.55246372
 20
-7.65992679
 10
-7.55246372
 20
-7.66192679
 10
-7.55446372
 20
-7.66192679
 10
-7.55446372
 20
-7.65992679
  0
LWPOLYLINE
  5
86
100
AcDbEntity
  8
LAYER_1
 62
     1
  6
CONTINUOUS
370
    -3
100
AcDbPolyline
 90
        5
 70
     0
 43
0.0
 10
-7.54301359
 20
-7.65992679
 10
-7.54101359
 20
-7.65992679
 10
-7.54101359
 20
-7.66192679
 10
-7.54301359
 20
-7.66192679
 10
-7.54301359
 20
-7.65992679
  0
LWPOLYLINE
  5
87
102
{ACAD_REACTORS
330
88
102
}
100
AcDbEntity
  8
LAYER_1
 62
     1
  6
CONTINUOUS
370
    -3
100
AcDbPolyline
 90
        4
 70
     1
 43
0.0
 10
-7.66210263
 20
-7.5034027
 10
-7.57510263
 20
-7.5034027
 10
-7.57510263
 20
-7.5084027
 10
-7.66210263
 20
-7.5084027
  0
HATCH
  5
88
100
AcDbEntity
  8
LAYER_1
 62
   253
  6
CONTINUOUS
100
AcDbHatch
 10
0.0
 20
0.0
 30
0.0
210
0.0
220
0.0
230
1.0
  2
SOLID
 70
     1
 71
     1
 91
        1
 92
        7
 72
     0
 73
     1
 93
        4
 10
-7.66210263
 20
-7.5034027
 10
-7.57510263
 20
-7.5034027
 10
-7.57510263
 20
-7.5084027
 10
-7.66210263
 20
-7.5084027
 97
        1
330
87
 75
     0
 76
     2
 47
0.775229
 98
        1
 10
0.0
 20
0.0
  0
LWPOLYLINE
  5
89
102
{ACAD_REACTORS
330
8A
102
}
100
AcDbEntity
  8
LAYER_1
 62
     1
  6
CONTINUOUS
370
    -3
100
AcDbPolyline
 90
        4
 70
     1
 43
0.0
 10
-7.57510263
 20
-7.5034027
 10
-7.48810263
 20
-7.5034027
 10
-7.48810263
 20
-7.5084027
 10
-7.57510263
 20
-7.5084027
  0
HATCH
  5
8A
100
AcDbEntity
  8
LAYER_1
 62
   253
  6
CONTINUOUS
100
AcDbHatch
 10
0.0
 20
0.0
 30
0.0
210
0.0
220
0.0
230
1.0
  2
SOLID
 70
     1
 71
     1
 91
        1
 92
        7
 72
     0
 73
     1
 93
        4
 10
-7.57510263
 20
-7.5034027
 10
-7.48810263
 20
-7.5034027
 10
-7.48810263
 20
-7.5084027
 10
-7.57510263
 20
-7.5084027
 97
        1
330
89
 75
     0
 76
     2
 47
0.775229
 98
        1
 10
0.0
 20
0.0
  0
LINE
  5
8B
100
AcDbEntity
  8
LAYER_1
 62
     7
  6
CONTINUOUS
370
    -3
100
AcDbLine
 10
-7.66210263
 20
-7.5034027
 30
0.0
 11
-7.48810263
 21
-7.5034027
 31
0.0
  0
LINE
  5
8C
100
AcDbEntity
  8
LAYER_1
 62
     1
  6
CONTINUOUS
370
    -3
100
AcDbLine
 10
-7.65210263
 20
-7.4934027
 30
0.0
 11
-7.65210263
 21
-7.5034027
 31
0.0
  0
LINE
  5
8D
100
AcDbEntity
  8
LAYER_1
 62
     1
  6
CONTINUOUS
370
    -3
100
AcDbLine
 10
-7.62390263
 20
-7.4934027
 30
0.0
 11
-7.62390263
 21
-7.5034027
 31
0.0
  0
LINE
  5
8E
100
AcDbEntity
  8
LAYER_1
 62
     1
  6
CONTINUOUS
370
    -3
100
AcDbLine
 10
-7.61170263
 20
-7.4934027
 30
0.0
 11
-7.61170263
 21
-7.5034027
 31
0.0
  0
LINE
  5
8F
100
AcDbEntity
  8
LAYER_1
 62
     1
  6
CONTINUOUS
370
    -3
100
AcDbLine
 10
-7.59950263
 20
-7.4934027
 30
0.0
 11
-7.59950263
 21
-7.5034027
 31
0.0
  0
LINE
  5
90
100
AcDbEntity
  8
LAYER_1
 62
     1
  6
CONTINUOUS
370
    -3
100
AcDbLine
 10
-7.58730263
 20
-7.4934027
 30
0.0
 11
-7.58730263
 21
-7.5034027
 31
0.0
  0
LINE
  5
91
100
AcDbEntity
  8
LAYER_1
 62
     1
  6
CONTINUOUS
370
    -3
100
AcDbLine
 10
-7.56510263
 20
-7.4934027
 30
0.0
 11
-7.56510263
 21
-7.5034027
 31
0.0
  0
LINE
  5
92
100
AcDbEntity
  8
LAYER_1
 62
     1
  6
CONTINUOUS
370
    -3
100
AcDbLine
 10
-7.63610263
 20
-7.5084027
 30
0.0
 11
-7.63610263
 21
-7.6084027
 31
0.0
  0
LINE
  5
93
100
AcDbEntity
  8
LAYER_1
 62
     1
  6
CONTINUOUS
370
    -3
100
AcDbLine
 10
-7.63610263
 20
-7.4934027
 30
0.0
 11
-7.63610263
 21
-7.5034027
 31
0.0
  0
LINE
  5
94
100
AcDbEntity
  8
LAYER_1
 62
     1
  6
CONTINUOUS
370
    -3
100
AcDbLine
 10
-7.53690263
 20
-7.5084027
 30
0.0
 11
-7.53690263
 21
-7.5434027
 31
0.0
  0
LINE
  5
95
100
AcDbEntity
  8
LAYER_1
 62
     1
  6
CONTINUOUS
370
    -3
100
AcDbLine
 10
-7.52470263
 20
-7.5084027
 30
0.0
 11
-7.52470263
 21
-7.5434027
 31
0.0
  0
LINE
  5
96
100
AcDbEntity
  8
LAYER_1
 62
     1
  6
CONTINUOUS
370
    -3
100
AcDbLine
 10
-7.51250263
 20
-7.5084027
 30
0.0
 11
-7.51250263
 21
-7.5434027
 31
0.0
  0
LINE
  5
97
100
AcDbEntity
  8
LAYER_1
 62
     1
  6
CONTINUOUS
370
    -3
100
AcDbLine
 10
-7.50030263
 20
-7.5084027
 30
0.0
 11
-7.50030263
 21
-7.5734027
 31
0.0
  0
LINE
  5
98
100
AcDbEntity
  8
LAYER_1
 62
     1
  6
CONTINUOUS
370
    -3
100
AcDbLine
 10
-7.53690263
 20
-7.4934027
 30
0.0
 11
-7.53690263
 21
-7.5034027
 31
0.0
  0
LINE
  5
99
100
AcDbEntity
  8
LAYER_1
 62
     1
  6
CONTINUOUS
370
    -3
100
AcDbLine
 10
-7.52470263
 20
-7.4934027
 30
0.0
 11
-7.52470263
 21
-7.5034027
 31
0.0
  0
LINE
  5
9A
100
AcDbEntity
  8
LAYER_1
 62
     1
  6
CONTINUOUS
370
    -3
100
AcDbLine
 10
-7.51250263
 20
-7.4934027
 30
0.0
 11
-7.51250263
 21
-7.5034027
 31
0.0
  0
LINE
  5
9B
100
AcDbEntity
  8
LAYER_1
 62
     1
  6
CONTINUOUS
370
    -3
100
AcDbLine
 10
-7.50030263
 20
-7.4934027
 30
0.0
 11
-7.50030263
 21
-7.5034027
 31
0.0
  0
LINE
  5
9C
100
AcDbEntity
  8
LAYER_1
 62
     1
  6
CONTINUOUS
370
    -3
100
AcDbLine
 10
-7.54910263
 20
-7.5084027
 30
0.0
 11
-7.54910263
 21
-7.5434027
 31
0.0
  0
LINE
  5
9D
100
AcDbEntity
  8
LAYER_1
 62
     1
  6
CONTINUOUS
370
    -3
100
AcDbLine
 10
-7.54910263
 20
-7.4934027
 30
0.0
 11
-7.54910263
 21
-7.5034027
 31
0.0
  0
LINE
  5
9E
100
AcDbEntity
  8
LAYER_1
 62
     1
  6
CONTINUOUS
370
    -3
100
AcDbLine
 10
-7.59950263
 20
-7.6134027
 30
0.0
 11
-7.59950263
 21
-7.6584027
 31
0.0
  0
LINE
  5
9F
100
AcDbEntity
  8
LAYER_1
 62
     1
  6
CONTINUOUS
370
    -3
100
AcDbLine
 10
-7.61170263
 20
-7.6134027
 30
0.0
 11
-7.61170263
 21
-7.6584027
 31
0.0
  0
LINE
  5
A0
100
AcDbEntity
  8
LAYER_1
 62
     1
  6
CONTINUOUS
370
    -3
100
AcDbLine
 10
-7.62390263
 20
-7.6134027
 30
0.0
 11
-7.62390263
 21
-7.6584027
 31
0.0
  0
LINE
  5
A1
100
AcDbEntity
  8
LAYER_1
 62
     1
  6
CONTINUOUS
370
    -3
100
AcDbLine
 10
-7.63610263
 20
-7.6134027
 30
0.0
 11
-7.63610263
 21
-7.6584027
 31
0.0
  0
LWPOLYLINE
  5
A2
102
{ACAD_REACTORS
330
A3
102
}
100
AcDbEntity
  8
LAYER_1
 62
     1
  6
CONTINUOUS
370
    -3
100
AcDbPolyline
 90
        4
 70
     1
 43
0.0
 10
-7.57510263
 20
-7.5434027
 10
-7.48810263
 20
-7.5434027
 10
-7.48810263
 20
-7.5484027
 10
-7.57510263
 20
-7.5484027
  0
HATCH
  5
A3
100
AcDbEntity
  8
LAYER_1
 62
   253
  6
CONTINUOUS
100
AcDbHatch
 10
0.0
 20
0.0
 30
0.0
210
0.0
220
0.0
230
1.0
  2
SOLID
 70
     1
 71
     1
 91
        1
 92
        7
 72
     0
 73
     1
 93
        4
 10
-7.57510263
 20
-7.5434027
 10
-7.48810263
 20
-7.5434027
 10
-7.48810263
 20
-7.5484027
 10
-7.57510263
 20
-7.5484027
 97
        1
330
A2
 75
     0
 76
     2
 47
0.775229
 98
        1
 10
0.0
 20
0.0
  0
LINE
  5
A4
100
AcDbEntity
  8
LAYER_1
 62
     1
  6
CONTINUOUS
370
    -3
100
AcDbLine
 10
-7.56510263
 20
-7.5734027
 30
0.0
 11
-7.56510263
 21
-7.5484027
 31
0.0
  0
LINE
  5
A5
100
AcDbEntity
  8
LAYER_1
 62
     1
  6
CONTINUOUS
370
    -3
100
AcDbLine
 10
-7.54910263
 20
-7.5734027
 30
0.0
 11
-7.54910263
 21
-7.5484027
 31
0.0
  0
LINE
  5
A6
100
AcDbEntity
  8
LAYER_1
 62
     1
  6
CONTINUOUS
370
    -3
100
AcDbLine
 10
-7.53690263
 20
-7.5734027
 30
0.0
 11
-7.53690263
 21
-7.5484027
 31
0.0
  0
LINE
  5
A7
100
AcDbEntity
  8
LAYER_1
 62
     1
  6
CONTINUOUS
370
    -3
100
AcDbLine
 10
-7.52470263
 20
-7.5734027
 30
0.0
 11
-7.52470263
 21
-7.5484027
 31
0.0
  0
LINE
  5
A8
100
AcDbEntity
  8
LAYER_1
 62
     1
  6
CONTINUOUS
370
    -3
100
AcDbLine
 10
-7.51250263
 20
-7.5734027
 30
0.0
 11
-7.51250263
 21
-7.5484027
 31
0.0
  0
LINE
  5
A9
100
AcDbEntity
  8
LAYER_1
 62
     1
  6
CONTINUOUS
370
    -3
100
AcDbLine
 10
-7.66210263
 20
-7.6134027
 30
0.0
 11
-7.57510263
 21
-7.6134027
 31
0.0
  0
LINE
  5
AA
100
AcDbEntity
  8
LAYER_1
 62
     7
  6
CONTINUOUS
370
    -3
100
AcDbLine
 10
-7.57510263
 20
-7.5434027
 30
0.0
 11
-7.48810263
 21
-7.5434027
 31
0.0
  0
LINE
  5
AB
100
AcDbEntity
  8
LAYER_1
 62
     7
  6
CONTINUOUS
370
    -3
100
AcDbLine
 10
-7.57510263
 20
-7.5734027
 30
0.0
 11
-7.48810263
 21
-7.5734027
 31
0.0
  0
LINE
  5
AC
100
AcDbEntity
  8
LAYER_1
 62
     7
  6
CONTINUOUS
370
    -3
100
AcDbLine
 10
-7.66210263
 20
-7.6584027
 30
0.0
 11
-7.48810263
 21
-7.6584027
 31
0.0
  0
TEXT
  5
AD
100
AcDbEntity
  8
LAYER_1
 62
     7
370
    35
100
AcDbText
 10
-7.66043507
 20
-7.6119027
 30
0.0
 40
0.002
  1
BASYSOL-Dämmkörper / Zwischenstücke
  7
ARIAL
 50
0.0
 41
1.0
 51
0.0
100
AcDbText
  0
TEXT
  5
AE
100
AcDbEntity
  8
LAYER_1
 62
     7
370
    35
100
AcDbText
 10
-7.57343507
 20
-7.6119027
 30
0.0
 40
0.002
  1
Bezeichnungen
  7
ARIAL
 50
0.0
 41
1.0
 51
0.0
100
AcDbText
  0
TEXT
  5
AF
100
AcDbEntity
  8
LAYER_1
 62
     7
370
    35
100
AcDbText
 10
-7.57343507
 20
-7.5769027
 30
0.0
 40
0.002
  1
Spezialausführungen
  7
ARIAL
 50
0.0
 41
1.0
 51
0.0
100
AcDbText
  0
TEXT
  5
B0
100
AcDbEntity
  8
LAYER_1
 62
     7
370
    35
100
AcDbText
 10
-7.66210263
 20
-7.40294139
 30
0.0
 40
0.006
  1
BASY
  7
ARIAL
 50
0.0
 41
1.0
 51
0.0
100
AcDbText
  0
TEXT
  5
B1
100
AcDbEntity
  8
LAYER_1
 62
     7
370
    18
100
AcDbText
 10
-7.63949036
 20
-7.40294139
 30
0.0
 40
0.006
  1
CON
  7
ARIAL
 50
0.0
 41
1.0
 51
0.0
100
AcDbText
  0
TEXT
  5
B2
100
AcDbEntity
  8
LAYER_1
 62
     2
370
    35
100
AcDbText
 10
-7.66210263
 20
-7.40753605
 30
0.0
 40
0.0025
  1
mit PTS komplett aus Stahl 1.4462!
  7
ARIAL
 50
0.0
 41
1.05
 51
0.0
100
AcDbText
  0
TEXT
  5
B3
100
AcDbEntity
  8
LAYER_1
 62
     7
370
    18
100
AcDbText
 10
-7.58310263
 20
-7.40144139
 30
0.0
 40
0.005
  1
Bestellliste
  7
ARIAL
 50
0.0
 41
1.0
 51
0.0
100
AcDbText
  0
TEXT
  5
B4
100
AcDbEntity
  8
LAYER_1
 62
     7
370
    18
100
AcDbText
 10
-7.54310263
 20
-7.39869139
 30
0.0
 40
0.00225
  1
Kragplattenanschlüsse  K
  7
ARIAL
 50
0.0
 41
0.85
 51
0.0
100
AcDbText
  0
TEXT
  5
B5
100
AcDbEntity
  8
LAYER_1
 62
     7
370
    18
100
AcDbText
 10
-7.49810263
 20
-7.39869139
 30
0.0
 40
0.00225
  1
Heft 1
  7
ARIAL
 50
0.0
 41
0.85
 51
0.0
100
AcDbText
  0
TEXT
  5
B6
100
AcDbEntity
  8
LAYER_1
 62
     7
370
    18
100
AcDbText
 10
-7.54310263
 20
-7.40419139
 30
0.0
 40
0.00225
  1
Querkraftanschlüsse  Q
  7
ARIAL
 50
0.0
 41
0.85
 51
0.0
100
AcDbText
  0
TEXT
  5
B7
100
AcDbEntity
  8
LAYER_1
 62
     7
370
    18
100
AcDbText
 10
-7.49810263
 20
-7.40419139
 30
0.0
 40
0.00225
  1
Heft 2
  7
ARIAL
 50
0.0
 41
0.85
 51
0.0
100
AcDbText
  0
TEXT
  5
B8
100
AcDbEntity
  8
LAYER_1
 62
     7
370
    18
100
AcDbText
 10
-7.54310263
 20
-7.40969139
 30
0.0
 40
0.00225
  1
Wandanschlüsse  WN,  WQ
  7
ARIAL
 50
0.0
 41
0.85
 51
0.0
100
AcDbText
  0
TEXT
  5
B9
100
AcDbEntity
  8
LAYER_1
 62
     7
370
    18
100
AcDbText
 10
-7.49810263
 20
-7.40969139
 30
0.0
 40
0.00225
  1
Heft 3
  7
ARIAL
 50
0.0
 41
0.85
 51
0.0
100
AcDbText
  0
TEXT
  5
BA
100
AcDbEntity
  8
LAYER_1
 62
     7
370
    35
100
AcDbText
 10
-7.54310263
 20
-7.41519139
 30
0.0
 40
0.00225
  1
Normalkraftanschlüsse  N,  UZ,  U
  7
ARIAL
 50
0.0
 41
0.85
 51
0.0
100
AcDbText
  0
TEXT
  5
BB
100
AcDbEntity
  8
LAYER_1
 62
     7
370
    35
100
AcDbText
 10
-7.49810263
 20
-7.41519139
 30
0.0
 40
0.00225
  1
Heft 4
  7
ARIAL
 50
0.0
 41
0.85
 51
0.0
100
AcDbText
  0
TEXT
  5
BC
100
AcDbEntity
  8
LAYER_1
 62
     7
370
    18
100
AcDbText
 10
-7.54310263
 20
-7.42069139
 30
0.0
 40
0.00225
  1
Brüstungsanschlüsse  U,  B
  7
ARIAL
 50
0.0
 41
0.85
 51
0.0
100
AcDbText
  0
TEXT
  5
BD
100
AcDbEntity
  8
LAYER_1
 62
     7
370
    18
100
AcDbText
 10
-7.49810263
 20
-7.42069139
 30
0.0
 40
0.00225
  1
Heft 5
  7
ARIAL
 50
0.0
 41
0.85
 51
0.0
100
AcDbText
  0
TEXT
  5
BE
100
AcDbEntity
  8
LAYER_1
 62
     7
370
    35
100
AcDbText
 10
-7.54310263
 20
-7.42619139
 30
0.0
 40
0.00225
  1
BASYSOL-Dämmkörper
  7
ARIAL
 50
0.0
 41
0.85
 51
0.0
100
AcDbText
  0
TEXT
  5
BF
100
AcDbEntity
  8
LAYER_1
 62
     7
370
    35
100
AcDbText
 10
-7.49810263
 20
-7.42619139
 30
0.0
 40
0.00225
  1
Heft 1-5
  7
ARIAL
 50
0.0
 41
0.85
 51
0.0
100
AcDbText
  0
TEXT
  5
C0
100
AcDbEntity
  8
LAYER_1
 62
     2
370
    18
100
AcDbText
 10
-7.66210263
 20
-7.41594139
 30
0.0
 40
0.003
  1
BASYS AG, Bausysteme
  7
ARIAL
 50
0.0
 41
0.9
 51
0.0
100
AcDbText
  0
TEXT
  5
C1
100
AcDbEntity
  8
LAYER_1
 62
     2
370
    18
100
AcDbText
 10
-7.61110263
 20
-7.41594139
 30
0.0
 40
0.003
  1
Tel. 034 448 23 23
  7
ARIAL
 50
0.0
 41
0.9
 51
0.0
100
AcDbText
  0
TEXT
  5
C2
100
AcDbEntity
  8
LAYER_1
 62
     2
370
    18
100
AcDbText
 10
-7.66210263
 20
-7.42094139
 30
0.0
 40
0.003
  1
Industrie Neuhof 33
  7
ARIAL
 50
0.0
 41
0.9
 51
0.0
100
AcDbText
  0
TEXT
  5
C3
100
AcDbEntity
  8
LAYER_1
 62
     2
370
    18
100
AcDbText
 10
-7.61110263
 20
-7.42094139
 30
0.0
 40
0.003
  1
Fax 034 448 23 20
  7
ARIAL
 50
0.0
 41
0.9
 51
0.0
100
AcDbText
  0
TEXT
  5
C4
100
AcDbEntity
  8
LAYER_1
 62
     2
370
    18
100
AcDbText
 10
-7.66210263
 20
-7.42594139
 30
0.0
 40
0.003
  1
3422 Kirchberg
  7
ARIAL
 50
0.0
 41
0.9
 51
0.0
100
AcDbText
  0
TEXT
  5
C5
100
AcDbEntity
  8
LAYER_1
 62
     2
370
    18
100
AcDbText
 10
-7.61110263
 20
-7.42594139
 30
0.0
 40
0.003
  1
www.basys.ch /
  7
ARIAL
 50
0.0
 41
0.9
 51
0.0
100
AcDbText
  0
TEXT
  5
C6
100
AcDbEntity
  8
LAYER_1
 62
     2
370
    35
100
AcDbText
 10
-7.58398251
 20
-7.42594139
 30
0.0
 40
0.003
  1
info@basys.ch
  7
ARIAL
 50
0.0
 41
0.9
 51
0.0
100
AcDbText
  0
TEXT
  5
C7
100
AcDbEntity
  8
LAYER_1
 62
     1
370
    18
100
AcDbText
 10
-7.57810263
 20
-7.40753605
 30
0.0
 40
0.0015
  1
(Änderungen vorbehalten)
  7
ARIAL
 50
0.0
 41
0.9
 51
0.0
100
AcDbText
  0
TEXT
  5
C8
100
AcDbEntity
  8
LAYER_1
 62
     1
370
    35
100
AcDbText
 10
-7.57575263
 20
-7.40453605
 30
0.0
 40
0.0015
  1
Ausgabe 2019 - CH
  7
ARIAL
 50
0.0
 41
0.9
 51
0.0
100
AcDbText
  0
TEXT
  5
C9
100
AcDbEntity
  8
LAYER_1
 62
     2
370
    18
100
AcDbText
 10
-7.66060263
 20
-7.4384027
 30
0.0
 40
0.002
  1
Nr.:
  7
ARIAL
 50
0.0
 41
1.02
 51
0.0
100
AcDbText
  0
TEXT
  5
CA
100
AcDbEntity
  8
LAYER_1
 62
     2
370
    18
100
AcDbText
 10
-7.58680262
 20
-7.4384027
 30
0.0
 40
0.002
  1
Plan Nr.:
  7
ARIAL
 50
0.0
 41
1.02
 51
0.0
100
AcDbText
  0
TEXT
  5
CB
100
AcDbEntity
  8
LAYER_1
 62
     2
370
    18
100
AcDbText
 10
-7.52298026
 20
-7.4384027
 30
0.0
 40
0.002
  1
Datum:
  7
ARIAL
 50
0.0
 41
1.02
 51
0.0
100
AcDbText
  0
TEXT
  5
CC
100
AcDbEntity
  8
LAYER_1
 62
     2
370
    18
100
AcDbText
 10
-7.66060263
 20
-7.4444027
 30
0.0
 40
0.002
  1
Objekt und Bauteil:
  7
ARIAL
 50
0.0
 41
1.02
 51
0.0
100
AcDbText
  0
TEXT
  5
CD
100
AcDbEntity
  8
LAYER_1
 62
     2
370
    18
100
AcDbText
 10
-7.66060263
 20
-7.4494027
 30
0.0
 40
0.002
  1
Strasse, Nr.:
  7
ARIAL
 50
0.0
 41
1.02
 51
0.0
100
AcDbText
  0
TEXT
  5
CE
100
AcDbEntity
  8
LAYER_1
 62
     2
370
    18
100
AcDbText
 10
-7.57360263
 20
-7.4494027
 30
0.0
 40
0.002
  1
PLZ, Ort:
  7
ARIAL
 50
0.0
 41
1.02
 51
0.0
100
AcDbText
  0
TEXT
  5
CF
100
AcDbEntity
  8
LAYER_1
 62
     2
370
    18
100
AcDbText
 10
-7.57360263
 20
-7.4554027
 30
0.0
 40
0.002
  1
Lieferort:
  7
ARIAL
 50
0.0
 41
1.02
 51
0.0
100
AcDbText
  0
TEXT
  5
D0
100
AcDbEntity
  8
LAYER_1
 62
     2
370
    18
100
AcDbText
 10
-7.66060263
 20
-7.4554027
 30
0.0
 40
0.002
  1
Ingenieurbüro:
  7
ARIAL
 50
0.0
 41
1.02
 51
0.0
100
AcDbText
  0
TEXT
  5
D1
100
AcDbEntity
  8
LAYER_1
 62
     2
370
    18
100
AcDbText
 10
-7.66060263
 20
-7.4669027
 30
0.0
 40
0.002
  1
zuständige Person:
  7
ARIAL
 50
0.0
 41
1.02
 51
0.0
100
AcDbText
  0
TEXT
  5
D2
100
AcDbEntity
  8
LAYER_1
 62
     2
370
    18
100
AcDbText
 10
-7.57360263
 20
-7.4669027
 30
0.0
 40
0.002
  1
Kommission:
  7
ARIAL
 50
0.0
 41
1.02
 51
0.0
100
AcDbText
  0
TEXT
  5
D3
100
AcDbEntity
  8
LAYER_1
 62
     2
370
    18
100
AcDbText
 10
-7.57360263
 20
-7.4709027
 30
0.0
 40
0.002
  1
Lieferbemerkung:
  7
ARIAL
 50
0.0
 41
1.02
 51
0.0
100
AcDbText
  0
TEXT
  5
D4
100
AcDbEntity
  8
LAYER_1
 62
     2
370
    18
100
AcDbText
 10
-7.66060263
 20
-7.4709027
 30
0.0
 40
0.002
  1
Bestellung geprüft am:
  7
ARIAL
 50
0.0
 41
1.02
 51
0.0
100
AcDbText
  0
TEXT
  5
D5
100
AcDbEntity
  8
LAYER_1
 62
     2
370
    18
100
AcDbText
 10
-7.57360263
 20
-7.4629027
 30
0.0
 40
0.002
  1
Liefertermin:
  7
ARIAL
 50
0.0
 41
1.02
 51
0.0
100
AcDbText
  0
TEXT
  5
D6
100
AcDbEntity
  8
LAYER_1
 62
     2
370
    18
100
AcDbText
 10
-7.66060263
 20
-7.4774027
 30
0.0
 40
0.002
  1
Bauunternehmer:
  7
ARIAL
 50
0.0
 41
1.02
 51
0.0
100
AcDbText
  0
TEXT
  5
D7
100
AcDbEntity
  8
LAYER_1
 62
     2
370
    18
100
AcDbText
 10
-7.57360263
 20
-7.4774027
 30
0.0
 40
0.002
  1
Verrechnungsstelle:
  7
ARIAL
 50
0.0
 41
1.02
 51
0.0
100
AcDbText
  0
TEXT
  5
D8
100
AcDbEntity
  8
LAYER_1
 62
     2
370
    18
100
AcDbText
 10
-7.57360263
 20
-7.4809027
 30
0.0
 40
0.002
  1
(Stahl- oder Baumaterialhandel)
  7
ARIAL
 50
0.0
 41
1.02
 51
0.0
100
AcDbText
  0
TEXT
  5
D9
100
AcDbEntity
  8
LAYER_1
 62
     2
370
    18
100
AcDbText
 10
-7.66060263
 20
-7.4879027
 30
0.0
 40
0.002
  1
Bauführer:
  7
ARIAL
 50
0.0
 41
1.02
 51
0.0
100
AcDbText
  0
TEXT
  5
DA
100
AcDbEntity
  8
LAYER_1
 62
     2
370
    18
100
AcDbText
 10
-7.66060263
 20
-7.4919027
 30
0.0
 40
0.002
  1
Baustellentelefon:
  7
ARIAL
 50
0.0
 41
1.02
 51
0.0
100
AcDbText
  0
TEXT
  5
DB
100
AcDbEntity
  8
LAYER_1
 62
     2
370
    18
100
AcDbText
 10
-7.65930263
 20
-7.4994027
 30
0.0
 40
0.002
  1
Pos.
  7
ARIAL
 50
0.0
 41
0.85
 51
0.0
100
AcDbText
  0
TEXT
  5
DC
100
AcDbEntity
  8
LAYER_1
 62
     2
370
    35
100
AcDbText
 10
-7.64617113
 20
-7.4994027
 30
0.0
 40
0.002
  1
Typ
  7
ARIAL
 50
0.0
 41
0.85
 51
0.0
100
AcDbText
  0
TEXT
  5
DD
100
AcDbEntity
  8
LAYER_1
 62
     2
370
    18
100
AcDbText
 10
-7.63270713
 20
-7.4979027
 30
0.0
 40
0.002
  1
L (m)
  7
ARIAL
 50
0.0
 41
0.85
 51
0.0
100
AcDbText
  0
TEXT
  5
DE
100
AcDbEntity
  8
LAYER_1
 62
     2
370
    18
100
AcDbText
 10
-7.63470713
 20
-7.5009027
 30
0.0
 40
0.002
  1
Standard
  7
ARIAL
 50
0.0
 41
0.85
 51
0.0
100
AcDbText
  0
TEXT
  5
DF
100
AcDbEntity
  8
LAYER_1
 62
     2
370
    18
100
AcDbText
 10
-7.62052413
 20
-7.4979027
 30
0.0
 40
0.002
  1
L (m)
  7
ARIAL
 50
0.0
 41
0.85
 51
0.0
100
AcDbText
  0
TEXT
  5
E0
100
AcDbEntity
  8
LAYER_1
 62
     2
370
    18
100
AcDbText
 10
-7.62052413
 20
-7.5009027
 30
0.0
 40
0.002
  1
Spez.
  7
ARIAL
 50
0.0
 41
0.85
 51
0.0
100
AcDbText
  0
TEXT
  5
E1
100
AcDbEntity
  8
LAYER_1
 62
     2
370
    18
100
AcDbText
 10
-7.60910763
 20
-7.4994027
 30
0.0
 40
0.002
  1
H (cm)
  7
ARIAL
 50
0.0
 41
0.85
 51
0.0
100
AcDbText
  0
TEXT
  5
E2
100
AcDbEntity
  8
LAYER_1
 62
     2
370
    18
100
AcDbText
 10
-7.58475413
 20
-7.4979027
 30
0.0
 40
0.002
  1
Anzahl
  7
ARIAL
 50
0.0
 41
0.85
 51
0.0
100
AcDbText
  0
TEXT
  5
E3
100
AcDbEntity
  8
LAYER_1
 62
     2
370
    18
100
AcDbText
 10
-7.58605413
 20
-7.5009027
 30
0.0
 40
0.002
  1
Elemente
  7
ARIAL
 50
0.0
 41
0.85
 51
0.0
100
AcDbText
  0
TEXT
  5
E4
100
AcDbEntity
  8
LAYER_1
 62
     2
370
    18
100
AcDbText
 10
-7.57230263
 20
-7.4994027
 30
0.0
 40
0.002
  1
Pos.
  7
ARIAL
 50
0.0
 41
0.85
 51
0.0
100
AcDbText
  0
TEXT
  5
E5
100
AcDbEntity
  8
LAYER_1
 62
     2
370
    18
100
AcDbText
 10
-7.66060263
 20
-7.6619027
 30
0.0
 40
0.002
  1
Bestellung erhalten am:
  7
ARIAL
 50
0.0
 41
1.02
 51
0.0
100
AcDbText
  0
TEXT
  5
E6
100
AcDbEntity
  8
LAYER_1
 62
     2
370
    18
100
AcDbText
 10
-7.58660263
 20
-7.6619027
 30
0.0
 40
0.002
  1
Mail
  7
ARIAL
 50
0.0
 41
1.02
 51
0.0
100
AcDbText
  0
TEXT
  5
E7
100
AcDbEntity
  8
LAYER_1
 62
     2
370
    18
100
AcDbText
 10
-7.57560263
 20
-7.6619027
 30
0.0
 40
0.002
  1
per Tel.
  7
ARIAL
 50
0.0
 41
1.02
 51
0.0
100
AcDbText
  0
TEXT
  5
E8
100
AcDbEntity
  8
LAYER_1
 62
     2
370
    18
100
AcDbText
 10
-7.55960263
 20
-7.6619027
 30
0.0
 40
0.002
  1
Fax
  7
ARIAL
 50
0.0
 41
1.02
 51
0.0
100
AcDbText
  0
TEXT
  5
E9
100
AcDbEntity
  8
LAYER_1
 62
     2
370
    18
100
AcDbText
 10
-7.54910263
 20
-7.6619027
 30
0.0
 40
0.002
  1
Post
  7
ARIAL
 50
0.0
 41
1.02
 51
0.0
100
AcDbText
  0
TEXT
  5
EA
100
AcDbEntity
  8
LAYER_1
 62
     2
370
    18
100
AcDbText
 10
-7.52610263
 20
-7.6619027
 30
0.0
 40
0.002
  1
Aufnahme durch:
  7
ARIAL
 50
0.0
 41
1.02
 51
0.0
100
AcDbText
  0
TEXT
  5
EB
100
AcDbEntity
  8
LAYER_1
 62
     2
370
    18
100
AcDbText
 10
-7.48434535
 20
-7.66338891
 30
0.0
 40
0.002
  1
09-19
  7
ARIAL
 50
89.9999975
 41
0.7
 51
0.0
100
AcDbText
  0
TEXT
  5
EC
100
AcDbEntity
  8
LAYER_1
 62
     7
370
    35
100
AcDbText
 10
-7.66043507
 20
-7.5069027
 30
0.0
 40
0.002
  1
Normalkraftanschlüsse N
  7
ARIAL
 50
0.0
 41
1.0
 51
0.0
100
AcDbText
  0
TEXT
  5
ED
100
AcDbEntity
  8
LAYER_1
 62
     7
370
    35
100
AcDbText
 10
-7.57343507
 20
-7.5069027
 30
0.0
 40
0.002
  1
Normalkraftanschlüsse UZ
  7
ARIAL
 50
0.0
 41
1.0
 51
0.0
100
AcDbText
  0
TEXT
  5
EE
100
AcDbEntity
  8
LAYER_1
 62
     2
370
    18
100
AcDbText
 10
-7.59736163
 20
-7.4994027
 30
0.0
 40
0.002
  1
lv (mm)
  7
ARIAL
 50
0.0
 41
0.85
 51
0.0
100
AcDbText
  0
TEXT
  5
EF
100
AcDbEntity
  8
LAYER_1
 62
     2
370
    35
100
AcDbText
 10
-7.55917113
 20
-7.4994027
 30
0.0
 40
0.002
  1
Typ
  7
ARIAL
 50
0.0
 41
0.85
 51
0.0
100
AcDbText
  0
TEXT
  5
F0
100
AcDbEntity
  8
LAYER_1
 62
     2
370
    18
100
AcDbText
 10
-7.54770713
 20
-7.5009027
 30
0.0
 40
0.002
  1
Standard
  7
ARIAL
 50
0.0
 41
0.85
 51
0.0
100
AcDbText
  0
TEXT
  5
F1
100
AcDbEntity
  8
LAYER_1
 62
     2
370
    18
100
AcDbText
 10
-7.54570713
 20
-7.4979027
 30
0.0
 40
0.002
  1
L (m)
  7
ARIAL
 50
0.0
 41
0.85
 51
0.0
100
AcDbText
  0
TEXT
  5
F2
100
AcDbEntity
  8
LAYER_1
 62
     2
370
    18
100
AcDbText
 10
-7.53352413
 20
-7.4979027
 30
0.0
 40
0.002
  1
L (m)
  7
ARIAL
 50
0.0
 41
0.85
 51
0.0
100
AcDbText
  0
TEXT
  5
F3
100
AcDbEntity
  8
LAYER_1
 62
     2
370
    18
100
AcDbText
 10
-7.53352413
 20
-7.5009027
 30
0.0
 40
0.002
  1
Spez.
  7
ARIAL
 50
0.0
 41
0.85
 51
0.0
100
AcDbText
  0
TEXT
  5
F4
100
AcDbEntity
  8
LAYER_1
 62
     2
370
    18
100
AcDbText
 10
-7.52210763
 20
-7.4994027
 30
0.0
 40
0.002
  1
H (cm)
  7
ARIAL
 50
0.0
 41
0.85
 51
0.0
100
AcDbText
  0
TEXT
  5
F5
100
AcDbEntity
  8
LAYER_1
 62
     2
370
    18
100
AcDbText
 10
-7.51036163
 20
-7.4994027
 30
0.0
 40
0.002
  1
lv (mm)
  7
ARIAL
 50
0.0
 41
0.85
 51
0.0
100
AcDbText
  0
TEXT
  5
F6
100
AcDbEntity
  8
LAYER_1
 62
     2
370
    18
100
AcDbText
 10
-7.49905413
 20
-7.5009027
 30
0.0
 40
0.002
  1
Elemente
  7
ARIAL
 50
0.0
 41
0.85
 51
0.0
100
AcDbText
  0
TEXT
  5
F7
100
AcDbEntity
  8
LAYER_1
 62
     2
370
    18
100
AcDbText
 10
-7.49775413
 20
-7.4979027
 30
0.0
 40
0.002
  1
Anzahl
  7
ARIAL
 50
0.0
 41
0.85
 51
0.0
100
AcDbText
  0
TEXT
  5
F8
100
AcDbEntity
  8
LAYER_1
 62
     7
370
    35
100
AcDbText
 10
-7.57343507
 20
-7.5469027
 30
0.0
 40
0.002
  1
Brüstungsanschlüsse, erhöhte Tragwiderstände
  7
ARIAL
 50
0.0
 41
1.0
 51
0.0
100
AcDbText
  0
TEXT
  5
F9
100
AcDbEntity
  8
LAYER_1
 62
     2
370
    18
100
AcDbText
 10
-7.64665963
 20
-7.6169027
 30
0.0
 40
0.002
  1
D80
  7
ARIAL
 50
0.0
 41
1.02
 51
0.0
100
AcDbText
  0
TEXT
  5
FA
100
AcDbEntity
  8
LAYER_1
 62
     2
370
    18
100
AcDbText
 10
-7.63194463
 20
-7.6169027
 30
0.0
 40
0.002
  1
1.0
  7
ARIAL
 50
0.0
 41
1.02
 51
0.0
100
AcDbText
  0
TEXT
  5
FB
100
AcDbEntity
  8
LAYER_1
 62
     2
370
    18
100
AcDbText
 10
-7.64665963
 20
-7.5119027
 30
0.0
 40
0.002
  1
NPS
  7
ARIAL
 50
0.0
 41
1.02
 51
0.0
100
AcDbText
  0
TEXT
  5
FC
100
AcDbEntity
  8
LAYER_1
 62
     2
370
    18
100
AcDbText
 10
-7.63194463
 20
-7.5119027
 30
0.0
 40
0.002
  1
0.2
  7
ARIAL
 50
0.0
 41
1.02
 51
0.0
100
AcDbText
  0
TEXT
  5
FD
100
AcDbEntity
  8
LAYER_1
 62
     2
370
    18
100
AcDbText
 10
-7.59572913
 20
-7.5119027
 30
0.0
 40
0.002
  1
220
  7
ARIAL
 50
0.0
 41
1.02
 51
0.0
100
AcDbText
  0
TEXT
  5
FE
100
AcDbEntity
  8
LAYER_1
 62
     2
370
    18
100
AcDbText
 10
-7.64575963
 20
-7.5169027
 30
0.0
 40
0.002
  1
NS
  7
ARIAL
 50
0.0
 41
1.02
 51
0.0
100
AcDbText
  0
TEXT
  5
FF
100
AcDbEntity
  8
LAYER_1
 62
     2
370
    18
100
AcDbText
 10
-7.63194463
 20
-7.5169027
 30
0.0
 40
0.002
  1
0.4
  7
ARIAL
 50
0.0
 41
1.02
 51
0.0
100
AcDbText
  0
TEXT
  5
100
100
AcDbEntity
  8
LAYER_1
 62
     2
370
    18
100
AcDbText
 10
-7.59572913
 20
-7.5169027
 30
0.0
 40
0.002
  1
220
  7
ARIAL
 50
0.0
 41
1.02
 51
0.0
100
AcDbText
  0
TEXT
  5
101
100
AcDbEntity
  8
LAYER_1
 62
     2
370
    18
100
AcDbText
 10
-7.64665963
 20
-7.5219027
 30
0.0
 40
0.002
  1
NPL
  7
ARIAL
 50
0.0
 41
1.02
 51
0.0
100
AcDbText
  0
TEXT
  5
102
100
AcDbEntity
  8
LAYER_1
 62
     2
370
    18
100
AcDbText
 10
-7.63194463
 20
-7.5219027
 30
0.0
 40
0.002
  1
0.2
  7
ARIAL
 50
0.0
 41
1.02
 51
0.0
100
AcDbText
  0
TEXT
  5
103
100
AcDbEntity
  8
LAYER_1
 62
     2
370
    18
100
AcDbText
 10
-7.59572913
 20
-7.5219027
 30
0.0
 40
0.002
  1
220
  7
ARIAL
 50
0.0
 41
1.02
 51
0.0
100
AcDbText
  0
TEXT
  5
104
100
AcDbEntity
  8
LAYER_1
 62
     2
370
    18
100
AcDbText
 10
-7.64575963
 20
-7.5269027
 30
0.0
 40
0.002
  1
NL
  7
ARIAL
 50
0.0
 41
1.02
 51
0.0
100
AcDbText
  0
TEXT
  5
105
100
AcDbEntity
  8
LAYER_1
 62
     2
370
    18
100
AcDbText
 10
-7.63194463
 20
-7.5269027
 30
0.0
 40
0.002
  1
0.4
  7
ARIAL
 50
0.0
 41
1.02
 51
0.0
100
AcDbText
  0
TEXT
  5
106
100
AcDbEntity
  8
LAYER_1
 62
     2
370
    18
100
AcDbText
 10
-7.59572913
 20
-7.5269027
 30
0.0
 40
0.002
  1
220
  7
ARIAL
 50
0.0
 41
1.02
 51
0.0
100
AcDbText
  0
TEXT
  5
107
100
AcDbEntity
  8
LAYER_1
 62
     2
370
    18
100
AcDbText
 10
-7.64665963
 20
-7.5319027
 30
0.0
 40
0.002
  1
NSL
  7
ARIAL
 50
0.0
 41
1.02
 51
0.0
100
AcDbText
  0
TEXT
  5
108
100
AcDbEntity
  8
LAYER_1
 62
     2
370
    18
100
AcDbText
 10
-7.63194463
 20
-7.5319027
 30
0.0
 40
0.002
  1
0.4
  7
ARIAL
 50
0.0
 41
1.02
 51
0.0
100
AcDbText
  0
TEXT
  5
109
100
AcDbEntity
  8
LAYER_1
 62
     2
370
    18
100
AcDbText
 10
-7.59572913
 20
-7.5319027
 30
0.0
 40
0.002
  1
220
  7
ARIAL
 50
0.0
 41
1.02
 51
0.0
100
AcDbText
  0
TEXT
  5
10A
100
AcDbEntity
  8
LAYER_1
 62
     2
370
    18
100
AcDbText
 10
-7.55965963
 20
-7.5119027
 30
0.0
 40
0.002
  1
UZP
  7
ARIAL
 50
0.0
 41
1.02
 51
0.0
100
AcDbText
  0
TEXT
  5
10B
100
AcDbEntity
  8
LAYER_1
 62
     2
370
    18
100
AcDbText
 10
-7.54494463
 20
-7.5119027
 30
0.0
 40
0.002
  1
0.3
  7
ARIAL
 50
0.0
 41
1.02
 51
0.0
100
AcDbText
  0
TEXT
  5
10C
100
AcDbEntity
  8
LAYER_1
 62
     2
370
    18
100
AcDbText
 10
-7.50872913
 20
-7.5119027
 30
0.0
 40
0.002
  1
160
  7
ARIAL
 50
0.0
 41
1.02
 51
0.0
100
AcDbText
  0
TEXT
  5
10D
100
AcDbEntity
  8
LAYER_1
 62
     2
370
    18
100
AcDbText
 10
-7.50872913
 20
-7.5169027
 30
0.0
 40
0.002
  1
160
  7
ARIAL
 50
0.0
 41
1.02
 51
0.0
100
AcDbText
  0
TEXT
  5
10E
100
AcDbEntity
  8
LAYER_1
 62
     2
370
    18
100
AcDbText
 10
-7.55965963
 20
-7.5169027
 30
0.0
 40
0.002
  1
UZS
  7
ARIAL
 50
0.0
 41
1.02
 51
0.0
100
AcDbText
  0
TEXT
  5
10F
100
AcDbEntity
  8
LAYER_1
 62
     2
370
    18
100
AcDbText
 10
-7.54494463
 20
-7.5169027
 30
0.0
 40
0.002
  1
1.0
  7
ARIAL
 50
0.0
 41
1.02
 51
0.0
100
AcDbText
  0
TEXT
  5
110
100
AcDbEntity
  8
LAYER_1
 62
     2
370
    18
100
AcDbText
 10
-7.50872913
 20
-7.5219027
 30
0.0
 40
0.002
  1
160
  7
ARIAL
 50
0.0
 41
1.02
 51
0.0
100
AcDbText
  0
TEXT
  5
111
100
AcDbEntity
  8
LAYER_1
 62
     2
370
    18
100
AcDbText
 10
-7.55965963
 20
-7.5219027
 30
0.0
 40
0.002
  1
UZM
  7
ARIAL
 50
0.0
 41
1.02
 51
0.0
100
AcDbText
  0
TEXT
  5
112
100
AcDbEntity
  8
LAYER_1
 62
     2
370
    18
100
AcDbText
 10
-7.54494463
 20
-7.5219027
 30
0.0
 40
0.002
  1
1.0
  7
ARIAL
 50
0.0
 41
1.02
 51
0.0
100
AcDbText
  0
TEXT
  5
113
100
AcDbEntity
  8
LAYER_1
 62
     2
370
    18
100
AcDbText
 10
-7.50872913
 20
-7.5269027
 30
0.0
 40
0.002
  1
160
  7
ARIAL
 50
0.0
 41
1.02
 51
0.0
100
AcDbText
  0
TEXT
  5
114
100
AcDbEntity
  8
LAYER_1
 62
     2
370
    18
100
AcDbText
 10
-7.55965963
 20
-7.5269027
 30
0.0
 40
0.002
  1
UZL
  7
ARIAL
 50
0.0
 41
1.02
 51
0.0
100
AcDbText
  0
TEXT
  5
115
100
AcDbEntity
  8
LAYER_1
 62
     2
370
    18
100
AcDbText
 10
-7.54494463
 20
-7.5269027
 30
0.0
 40
0.002
  1
1.0
  7
ARIAL
 50
0.0
 41
1.02
 51
0.0
100
AcDbText
  0
TEXT
  5
116
100
AcDbEntity
  8
LAYER_1
 62
     2
370
    18
100
AcDbText
 10
-7.50872913
 20
-7.5319027
 30
0.0
 40
0.002
  1
160
  7
ARIAL
 50
0.0
 41
1.02
 51
0.0
100
AcDbText
  0
TEXT
  5
117
100
AcDbEntity
  8
LAYER_1
 62
     2
370
    18
100
AcDbText
 10
-7.56055963
 20
-7.5319027
 30
0.0
 40
0.002
  1
UZXL
  7
ARIAL
 50
0.0
 41
1.02
 51
0.0
100
AcDbText
  0
TEXT
  5
118
100
AcDbEntity
  8
LAYER_1
 62
     2
370
    18
100
AcDbText
 10
-7.54494463
 20
-7.5319027
 30
0.0
 40
0.002
  1
1.0
  7
ARIAL
 50
0.0
 41
1.02
 51
0.0
100
AcDbText
  0
TEXT
  5
119
100
AcDbEntity
  8
LAYER_1
 62
     2
370
    18
100
AcDbText
 10
-7.55965963
 20
-7.5519027
 30
0.0
 40
0.002
  1
USV
  7
ARIAL
 50
0.0
 41
1.02
 51
0.0
100
AcDbText
  0
TEXT
  5
11A
100
AcDbEntity
  8
LAYER_1
 62
     2
370
    18
100
AcDbText
 10
-7.54494463
 20
-7.5519027
 30
0.0
 40
0.002
  1
1.0
  7
ARIAL
 50
0.0
 41
1.02
 51
0.0
100
AcDbText
  0
TEXT
  5
11B
100
AcDbEntity
  8
LAYER_1
 62
     2
370
    18
100
AcDbText
 10
-7.55965963
 20
-7.5569027
 30
0.0
 40
0.002
  1
UMV
  7
ARIAL
 50
0.0
 41
1.02
 51
0.0
100
AcDbText
  0
TEXT
  5
11C
100
AcDbEntity
  8
LAYER_1
 62
     2
370
    18
100
AcDbText
 10
-7.54494463
 20
-7.5569027
 30
0.0
 40
0.002
  1
1.0
  7
ARIAL
 50
0.0
 41
1.02
 51
0.0
100
AcDbText
  0
TEXT
  5
11D
100
AcDbEntity
  8
LAYER_1
 62
     2
370
    18
100
AcDbText
 10
-7.55965963
 20
-7.5619027
 30
0.0
 40
0.002
  1
ULV
  7
ARIAL
 50
0.0
 41
1.02
 51
0.0
100
AcDbText
  0
TEXT
  5
11E
100
AcDbEntity
  8
LAYER_1
 62
     2
370
    18
100
AcDbText
 10
-7.54494463
 20
-7.5619027
 30
0.0
 40
0.002
  1
1.0
  7
ARIAL
 50
0.0
 41
1.02
 51
0.0
100
AcDbText
  0
TEXT
  5
11F
100
AcDbEntity
  8
LAYER_1
 62
     2
370
    18
100
AcDbText
 10
-7.64665963
 20
-7.5569027
 30
0.0
 40
0.002
  1
NPS
  7
ARIAL
 50
0.0
 41
1.02
 51
0.0
100
AcDbText
  0
TEXT
  5
120
100
AcDbEntity
  8
LAYER_1
 62
     2
370
    18
100
AcDbText
 10
-7.63194463
 20
-7.5569027
 30
0.0
 40
0.002
  1
0.2
  7
ARIAL
 50
0.0
 41
1.02
 51
0.0
100
AcDbText
  0
TEXT
  5
121
100
AcDbEntity
  8
LAYER_1
 62
     2
370
    18
100
AcDbText
 10
-7.59572913
 20
-7.5569027
 30
0.0
 40
0.002
  1
140
  7
ARIAL
 50
0.0
 41
1.02
 51
0.0
100
AcDbText
  0
TEXT
  5
122
100
AcDbEntity
  8
LAYER_1
 62
     2
370
    18
100
AcDbText
 10
-7.64575963
 20
-7.5619027
 30
0.0
 40
0.002
  1
NS
  7
ARIAL
 50
0.0
 41
1.02
 51
0.0
100
AcDbText
  0
TEXT
  5
123
100
AcDbEntity
  8
LAYER_1
 62
     2
370
    18
100
AcDbText
 10
-7.63194463
 20
-7.5619027
 30
0.0
 40
0.002
  1
0.4
  7
ARIAL
 50
0.0
 41
1.02
 51
0.0
100
AcDbText
  0
TEXT
  5
124
100
AcDbEntity
  8
LAYER_1
 62
     2
370
    18
100
AcDbText
 10
-7.59572913
 20
-7.5619027
 30
0.0
 40
0.002
  1
140
  7
ARIAL
 50
0.0
 41
1.02
 51
0.0
100
AcDbText
  0
TEXT
  5
125
100
AcDbEntity
  8
LAYER_1
 62
     2
370
    18
100
AcDbText
 10
-7.64665963
 20
-7.5669027
 30
0.0
 40
0.002
  1
NPL
  7
ARIAL
 50
0.0
 41
1.02
 51
0.0
100
AcDbText
  0
TEXT
  5
126
100
AcDbEntity
  8
LAYER_1
 62
     2
370
    18
100
AcDbText
 10
-7.63194463
 20
-7.5669027
 30
0.0
 40
0.002
  1
0.2
  7
ARIAL
 50
0.0
 41
1.02
 51
0.0
100
AcDbText
  0
TEXT
  5
127
100
AcDbEntity
  8
LAYER_1
 62
     2
370
    18
100
AcDbText
 10
-7.59572913
 20
-7.5669027
 30
0.0
 40
0.002
  1
140
  7
ARIAL
 50
0.0
 41
1.02
 51
0.0
100
AcDbText
  0
TEXT
  5
128
100
AcDbEntity
  8
LAYER_1
 62
     2
370
    18
100
AcDbText
 10
-7.64575963
 20
-7.5719027
 30
0.0
 40
0.002
  1
NL
  7
ARIAL
 50
0.0
 41
1.02
 51
0.0
100
AcDbText
  0
TEXT
  5
129
100
AcDbEntity
  8
LAYER_1
 62
     2
370
    18
100
AcDbText
 10
-7.63194463
 20
-7.5719027
 30
0.0
 40
0.002
  1
0.4
  7
ARIAL
 50
0.0
 41
1.02
 51
0.0
100
AcDbText
  0
TEXT
  5
12A
100
AcDbEntity
  8
LAYER_1
 62
     2
370
    18
100
AcDbText
 10
-7.59572913
 20
-7.5719027
 30
0.0
 40
0.002
  1
140
  7
ARIAL
 50
0.0
 41
1.02
 51
0.0
100
AcDbText
  0
TEXT
  5
12B
100
AcDbEntity
  8
LAYER_1
 62
     2
370
    18
100
AcDbText
 10
-7.64665963
 20
-7.5769027
 30
0.0
 40
0.002
  1
NSL
  7
ARIAL
 50
0.0
 41
1.02
 51
0.0
100
AcDbText
  0
TEXT
  5
12C
100
AcDbEntity
  8
LAYER_1
 62
     2
370
    18
100
AcDbText
 10
-7.63194463
 20
-7.5769027
 30
0.0
 40
0.002
  1
0.4
  7
ARIAL
 50
0.0
 41
1.02
 51
0.0
100
AcDbText
  0
TEXT
  5
12D
100
AcDbEntity
  8
LAYER_1
 62
     2
370
    18
100
AcDbText
 10
-7.59572913
 20
-7.5769027
 30
0.0
 40
0.002
  1
140
  7
ARIAL
 50
0.0
 41
1.02
 51
0.0
100
AcDbText
  0
TEXT
  5
12E
100
AcDbEntity
  8
LAYER_1
 62
     2
370
    18
100
AcDbText
 10
-7.64665963
 20
-7.6219027
 30
0.0
 40
0.002
  1
T80
  7
ARIAL
 50
0.0
 41
1.02
 51
0.0
100
AcDbText
  0
TEXT
  5
12F
100
AcDbEntity
  8
LAYER_1
 62
     2
370
    18
100
AcDbText
 10
-7.63194463
 20
-7.6219027
 30
0.0
 40
0.002
  1
1.0
  7
ARIAL
 50
0.0
 41
1.02
 51
0.0
100
AcDbText
  0
TEXT
  5
130
100
AcDbEntity
  8
LAYER_1
 62
     2
370
    18
100
AcDbText
 10
-7.64665963
 20
-7.6269027
 30
0.0
 40
0.002
  1
S80
  7
ARIAL
 50
0.0
 41
1.02
 51
0.0
100
AcDbText
  0
TEXT
  5
131
100
AcDbEntity
  8
LAYER_1
 62
     2
370
    18
100
AcDbText
 10
-7.63194463
 20
-7.6269027
 30
0.0
 40
0.002
  1
1.0
  7
ARIAL
 50
0.0
 41
1.02
 51
0.0
100
AcDbText
  0
TEXT
  5
132
100
AcDbEntity
  8
LAYER_1
 62
     2
370
    18
100
AcDbText
 10
-7.64665963
 20
-7.6319027
 30
0.0
 40
0.002
  1
E80
  7
ARIAL
 50
0.0
 41
1.02
 51
0.0
100
AcDbText
  0
TEXT
  5
133
100
AcDbEntity
  8
LAYER_1
 62
     2
370
    18
100
AcDbText
 10
-7.63194463
 20
-7.6319027
 30
0.0
 40
0.002
  1
0.5
  7
ARIAL
 50
0.0
 41
1.02
 51
0.0
100
AcDbText
  0
TEXT
  5
134
100
AcDbEntity
  8
LAYER_1
 62
     2
370
    35
100
AcDbText
 10
-7.56815496
 20
-7.62859152
 30
0.0
 40
0.002
  1
L, H, lv :
  7
ARIAL
 50
0.0
 41
1.02
 51
0.0
100
AcDbText
  0
TEXT
  5
135
100
AcDbEntity
  8
LAYER_1
 62
     2
370
    18
100
AcDbText
 10
-7.56815496
 20
-7.63441388
 30
0.0
 40
0.002
  1
Die Bezeichnungen der wichtigsten Abmessungen sind in
  7
ARIAL
 50
0.0
 41
1.02
 51
0.0
100
AcDbText
  0
TEXT
  5
136
100
AcDbEntity
  8
LAYER_1
 62
     2
370
    18
100
AcDbText
 10
-7.56815496
 20
-7.63801388
 30
0.0
 40
0.002
  1
der Dokumentation BASYCON, Heft "Grundlagen" Seite 22
  7
ARIAL
 50
0.0
 41
1.02
 51
0.0
100
AcDbText
  0
TEXT
  5
137
100
AcDbEntity
  8
LAYER_1
 62
     2
370
    18
100
AcDbText
 10
-7.56815496
 20
-7.64161388
 30
0.0
 40
0.002
  1
ersichtlich (pdf unter www.basys.ch, unter "Download"  und
  7
ARIAL
 50
0.0
 41
1.02
 51
0.0
100
AcDbText
  0
TEXT
  5
138
100
AcDbEntity
  8
LAYER_1
 62
     2
370
    18
100
AcDbText
 10
-7.56815496
 20
-7.64521387
 30
0.0
 40
0.002
  1
dann "Grundlagenheft" erhältlich).
  7
ARIAL
 50
0.0
 41
1.02
 51
0.0
100
AcDbText
  0
ENDSEC
  0
SECTION
  2
OBJECTS
  0
DICTIONARY
  5
1
100
AcDbDictionary
  3
ACAD_GROUP
350
2
  3
ACAD_MLINESTYLE
350
3
  0
DICTIONARY
  5
2
102
{CDWK_REACTORS
330
1
102
}
100
AcDbDictionary
  0
DICTIONARY
  5
3
102
{CDWK_REACTORS
330
1
102
}
100
AcDbDictionary
  3
STANDARD
350
4
  0
MLINESTYLE
  5
4
102
{CDWK_REACTORS
330
3
102
}
100
AcDbMlineStyle
  2
STANDARD
 70
     0
  3

 62
     0
 51
90.0
 52
90.0
 71
     2
 49
0.5
 62
   256
  6
BYLAYER
 49
-0.5
 62
   256
  6
BYLAYER
  0
ENDSEC
  0
EOF
